PrimaNota.ru - самый крупный в мире бесплатный архив песенных текстов, аккордов, табулатур и нот


Confession - Requiem - таба, видео

Регистрация Запомнить меня
Войти через:  Facebook Google Twitter Vk Yandex Mail.ru

Confession - Requiem - таба, видео

Печатать
Просмотров: 132
Artist: The Confession
Album: Requiem
Song: Requiem

Chords used:
Em-    [022000]
G-     [320033]
Am-    [002210]
D-     [xxx323]
C-     [x32010]
Asus2- [002200]


Intro violin solo
e|-----------------------------------------------------------------|
B|---5-7-8----/10--8-7---7-8---------------------------------------|
G|-7-------------------7-----5/4---7/9/7-4-5---4-4-----2-4---2-----|
D|-------------------------------------------------5-5---------5-4-| x2
A|-----------------------------------------------------------------|
E|-----------------------------------------------------------------|

e|-----------------------------------------------------------------|
B|-7---4-----------------------------------------------------------|
G|---------4-------------------------------------------------------|
D|-------------7---5---4---2---------------------------------------|
A|-----------------------------------------------------------------|
E|-----------------------------------------------------------------|


Em           D      C        G   Asus2
  we stand together  try to erase
Am           Em                  G    D
  all of the pain that takes his place
Em           D      C               G   Asus2
  we cry out to you  with words and vows
Am           Em                 G    D
  they don't amount to what you went through


C                            Em
  they say the good they die young
                    D        C
they say the wicked live too long
                           Em      D
I hope yer hearin' this in heaven
C                            Em
  now that yer gone i hear a song
               D      C
sung to me ten angels strong
                                   Em      D
it hurts to leave but at least yer free...


First guitar solo (similar to violin solo)
e|-----------------------------------------------------------------|
B|---5-7-8----/10--8-7-7---7-8-------------------------------------|
G|-7---------------------7-----5/4---7/9/7-4-5---4-4-----2-4---2---|
D|---------------------------------------------------5-5---------5-|
A|-----------------------------------------------------------------|
E|-----------------------------------------------------------------|

e|-----------------------------------------------------------------|
B|-7-----5-7-5-----------------------------------------------------|
G|----8------------------------------------------------------------|
D|-----------------------------------------------------------------|
A|-----------------------------------------------------------------|
E|-----------------------------------------------------------------|


Em           D    C             G   Asus2
  stay in my mind  till it's my time
Am            Em              G       D
  and may you be there when I see the light
Em             D      C            G   Asus2
  something we found   on hallowed ground
Am         Em            G      D
  your memory will never be put down...


C                            Em
  they say the good they die young
                    D        C
they say the wicked live too long
                           Em      D
I hope yer hearin' this in heaven
C                            Em
  now that yer gone i hear a song
               D      C
sung to me ten angels strong
                                   Em      C
it hurts to leave but at least yer free...


C       Em
(interlude)
end on a D


Clean soft part in interlude
e|-----10----10--8-7------------12---------------------------------|
B|-7-8---------------7-8--5--------8-------------------------------|
G|-----------------------------------------------------------------|
D|-----------------------------------------------------------------|
A|-----------------------------------------------------------------|
E|-----------------------------------------------------------------|

e|-----10----10--8-10-7----5-7-------------------------------------|
B|-7-8---------------------7-8-------------------------------------|
G|-----------------------------------------------------------------|
D|-----------------------------------------------------------------|
A|-----------------------------------------------------------------|
E|-----------------------------------------------------------------|


Em            D    C         G  Asus2
  keep missin you   is all I do
Am         Em         G          D
  speak to me tell me how is the view...
Em           D    C         G   Asus2
  it hurts inside  the city cries
Am        Em        G         D
  god you made a mistake that night...


      Em       D  C          G  Asus2    Am
and I miss you, I miss you tonight and I miss you...
          Em         G          D
(speak to me tell me how is the view)
      Em      D   C          G   Asus2    Am
and I miss you, I miss you tonight, and I miss you...
         Em        G         D
(god you made a mistake that night)
Em
I miss you
Добавлено: 16.06.2012
Другие материалы по этой песне:
  • Аккорды и текст

Страница создана 16.06.2012
http://primanota.ru/confession/requiem-chords.htm
Привет, Гость.
Предлагаем пройти революционный курс по гитаре.
Подарок от PrimaNota.Ru, забирай!