PrimaNota.ru - самый крупный в мире бесплатный архив песенных текстов, аккордов, табулатур и нот


Confession - No Angel - таба, видео

Регистрация Запомнить меня
Войти через:  Facebook Google Twitter Vk Yandex Mail.ru

Confession - No Angel - таба, видео

Печатать
Просмотров: 112
No Angel
The Confession
Tuning: CGCFAD


Guitar 1
|-----------------------------------------------------------------------------------------|
|-----------------------------------------------------------------------------------------|
|-10-9-7-9-10-7---10-9-7-9-10-12----10-9-10-9-7-------------------------------------------|
|--------------------------------10-------------------------------------------------------|
|-----------------------------------------------------------------------------------------|
|-----------------------------------------------------------------------------------------|

Guitar 2
|-----------------------------------------------------------------------------------------|
|-----------------------------------------------------------------------------------------|
|-7------5-7-3----7------5-7----------5---------------------------------------------------|
|-7------5-7-3----7------5-7--3-------5---------------------------------------------------|
|-5------3-5-1----5------3-5--3-------3---------------------------------------------------|
|-----------------------------3-----------------------------------------------------------|

Both guitars
|-----------------------------------------------------------------------------------------|
|-----------------------------------------------------------------------------------------|
|-----------------------------------------------------------------------------------------|
|-0-0-0-0-0-0-0-0-0-0---------------------------------------------------------------------|
|-0-0-0-0-0-0-0-0-0-0---------------------------------------------------------------------|
|-0-0-0-0-0-0-0-0-0-0---------------------------------------------------------------------|
pm. . . . . . . . . .


VERSE
|-----------------------------------------------------------------------------------------|
|-----------------------------------------------------------------------------------------|
|--------9/10-----7/9----------------9/10-----7/9---14-12-10------------------------------|
|-0--0-0------0-0-------8-8-5-0--0-0------0-0-----0---------------------------------------|
|-0--0-0-7/8--0-0-5/7-0-8-8-5-0--0-0-7/8--0-0-5/7-0-12-10-8-------------------------------|
|-0--0-0------0-0-----0-8-8-5-0--0-0------0-0-----0---------------------------------------|
pm.  . .      . .             .  . .      . .

|------------------------------------------------------------|
|------------------------------------------------------------|
|--------9/10-----7/9----------------------------------------|
|-0--0-0------0-0-------8-8-5---3--3-3-3-3-3-3-7--7-7-7h8p7--|
|-0--0-0-7/8--0-0-5/7-0-8-8-5---3--3-3-3-3-3-3-7--7-7--------|
|-0--0-0------0-0-----0-8-8-5---3--3-3-3-3-3-3-7--7-7--------|
  .  . .      . .                   . . . . . .    . .

PRE-CHORUS (i see you on the way...)
|-----------------------------------------------------------------------------------------|
|-----------------------------------------------------------------------------------------|
|-----------------------------------------------------------------------------------------|
|-8--8-8-8-8-8-8-10--10-10-10-10-10-10----------------------------------------------------|
|-8--8-8-8-8-8-8-10--10-10-10-10-10-10----------------------------------------------------|
|-8--8-8-8-8-8-8-10--10-10-10-10-10-10----------------------------------------------------|


CHORUS
|-----------------------------------------------------------------------------------------|
|-----------------------------------------------------------------------------------------|
|-----------------------3-------------------5---3-----------------------------------------|
|-0-0--0-0-------0-0--0-3-------0-0--0-0----5---3-----------------------------------------|
|-0-0--0-0-------0-0--0-1-------0-0--0-0----3---1-----------------------------------------|
|-0-0--0-0-------0-0--0---------0-0--0-0--------------------------------------------------|
pm. .  .         . .  .         . .  .

INTERLUDE x4 (dont know the 2nd guitar harmony halfway through)
|-----------------------------------------------------------------------------------------|
|-----------------------------------------------------------------------------------------|
|-7-----7-----10---9-----9-----9/12-12-----12-----12---15-----14-----17-------------------|
|---0-0---0-0----0---0-0---0-0---------0-0----0-0----0----0-0----0-0----0-----------------|
|-----------------------------------------------------------------------------------------|
|-----------------------------------------------------------------------------------------|
pm  . .   . .    .   . .   . .         . .    . .    .    . .    . .    .


MAIN SOLO 1(i only know the backing part)
|-----------------------------------------------------------------------------------------|
|-----------------------------------------------------------------------------------------|
|-3----5---------------------3-----5-----2-2-2-2-7-7-7-7----------------------------------|
|-3----5----0-0-0-0-3-3-3-3--3-----5-----2-2-2-2-7-7-7-7----------------------------------|
|-1----3----0-0-0-0-3-3-3-3--1-----3-----0-0-0-0-5-5-5-5----------------------------------|
|-----------0-0-0-0-3-3-3-3---------------------------------------------------------------|
pm          . . . . . . . .              . . . . . . . .

|-----------------------------------------------------------------------------------------|
|-----------------------------------------------------------------------------------------|
|-3----5---------------------3-----5-----2-2-2-2-7-7-7-7----------------------------------|
|-3----5----0-0-0-0-3-3-3-3--3-----5-----2-2-2-2-7-7-7-7----------------------------------|
|-1----3----0-0-0-0-3-3-3-3--1-----3-----0-0-0-0-5-5-5-5----------------------------------|
|-----------0-0-0-0-3-3-3-3---------------------------------------------------------------|
pm          . . . . . . . .              . . . . . . . .

|-----------------------------------------------------------------------------------------|
|-----------------------------------------------------------------------------------------|
|-----------------------------------------------------------------------------------------|
|-0---------3---------5----7---8-----0---------3---------5----7---8-----------------------|
|-0---------3---------5----7---8-----0---------3---------5----7---8-----------------------|
|-0---------3---------5----7---8-----0---------3---------5----7---8-----------------------|


INTERLUDE 2
|-----------------------------------------------------------------------------------------|
|-----------------------------------------------------------------------------------------|
|--5---------------4----------------3---------------4/3-3-3--4-4--------------------------|
|--7---------------5----------------2---------------5/2-2-2--5-5--------------------------|
|----0--0-0-0-0-0-----0--0-0-0-0-0----0--0-0-0-0-0----------------------------------------|
|-----------------------------------------------------------------------------------------|
pm   .  . . . . .     .  . . . . .    .  . . . . .

MINI SOLO
guitar 1
|-----------------------------------------------------------------------------------------|
|-----------------------------------------------------------------------------------------|
|--5---------------4----------------3---------------4/3-3-3--4-4--------------------------|
|--7---------------5----------------2---------------5/2-2-2--5-5--------------------------|
|----0--0-0-0-0-0-----0--0-0-0-0-0----0--0-0-0-0-0----------------------------------------|
|-----------------------------------------------------------------------------------------|
pm   .  . . . . .     .  . . . . .    .  . . . . .

guitar 2
|-8-v-v-v--10-v-v-v-v--7-v-v-v-8-7-5--5-8-7-5---------------------------------------------|
|-----------------------------------------------------------------------------------------|
|-----------------------------------------------------------------------------------------|
|-----------------------------------------------------------------------------------------|
|-----------------------------------------------------------------------------------------|
|-----------------------------------------------------------------------------------------|


SOFT SOLO
|-8-7-5-7-8-5----8-7-5-7-8-10----8-7-8-7-5------8-7-5-7-8-5----8-7-5-7-8-10----8-7-8-7-5--|
|------------------------------8---------------------------------------------8------------|
|-----------------------------------------------------------------------------------------|
|-----------------------------------------------------------------------------------------|
|-----------------------------------------------------------------------------------------|
|-----------------------------------------------------------------------------------------|


|-8-7-5-7-8-12---8-7-5-7-8-5----------8-7-5-7-8-8-----------------------------------------|
|-----------------------------8p6h8-------------------------------------------------------|
|-----------------------------------------------------------------------------------------|
|-----------------------------------------------------------------------------------------|
|-----------------------------------------------------------------------------------------|
|-----------------------------------------------------------------------------------------|

MAIN SOLO 2 (only know the backing)
guitar 1
|-----------------------------------------------------------------------------------------|
|-----------------------------------------------------------------------------------------|
|---------------------------------------------------------------------------5-------------|
|-7-7-7-7-7-7-7-7-10-10-10-10-5-5-5-5-7------7-7-7-7-----5-----3------0-----5------5------|
|-7-7-7-7-7-7-7-7-10-10-10-10-5-5-5-5-7------7-7-7-7-----5-----3------0-----3------5------|
|-7-7-7-7-7-7-7-7-10-10-10-10-5-5-5-5-7------7-7-7-7-----5-----3------0------------5------|
pm. . . . . . . . .  .  .  .  . . . .        . . .

|-----------------------------------------------------------------------------------------|
|-----------------------------------------------------------------------------------------|
|----------------------------5----------------------------------5-------------------------|
|-7--------5--------3--------5-------7--------5--------3--------5-------------------------|
|-7--------5--------3--------3-------7--------5--------3--------3-------------------------|
|-7--------5--------3----------------7--------5--------3----------------------------------|


|-----------------------------------------------------------------------------------------|
|-----------------------------------------------------------------------------------------|
|----------------------------5----------------------------------5-------------------------|
|-7--------5--------3--------5-------7--------5--------3--------5-------------------------|
|-7--------5--------3--------3-------7--------5--------3--------3-------------------------|
|-7--------5--------3----------------7--------5--------3----------------------------------|


ENDING PART (and if i put it on the line...)
|-----------------------------------------------------------------------------------------|
|-----------------------------------------------------------------------------------------|
|---------5-------------------------------------------------------------------------------|
|-7-------5---------5--------3------------------------------------------------------------|
|-7-------3---------5--------3------------------------------------------------------------|
|-7-----------------5--------3------------------------------------------------------------|


VERY END
|-----------------------------------------------------------------------------------------|
|-----------------------------------------------------------------------------------------|
|-3---5-----------------------------------------------------------------------------------|
|-3---5------0----------------------------------------------------------------------------|
|-1---3------0----------------------------------------------------------------------------|
|------------0----------------------------------------------------------------------------|
Добавлено: 07.06.2012
Другие материалы по этой песне:

Страница создана 07.06.2012
http://primanota.ru/confession/no-angel-chords.htm
Привет, Гость.
Предлагаем пройти революционный курс по гитаре.
Подарок от PrimaNota.Ru, забирай!