PrimaNota.ru - самый крупный в мире бесплатный архив песенных текстов, аккордов, табулатур и нот


Confession - Mirrors - таба, видео

Регистрация Запомнить меня
Войти через:  Facebook Google Twitter Vk Yandex Mail.ru

Confession - Mirrors - таба, видео

Печатать
Просмотров: 110
Band:  Confession
Song:  Mirrors
Album: Can't Live, Can't Breathe

Tuning: Drop A# [A#,F,A#,D#,G,C]

I noticed there were tab requests for this song, and there were no tabs, so
I took the liberty of tabbing it myself.
It's probably not 100% perfect, I learnt it in like 10 minutes.
Have fun!



Intro/Verse

C |-----------------------------------------------|
G |-----------------------------------------------|
D#|---------------------------------------5h7p5---|
A#|-0~-0-1h3p1-0~-0-3h4p3-0~-0-1h3p1-0~-0-------7-|
F |-0~-0-1h3p1-0~-0-3h4p3-0~-0-1h3p1-0~-0---------|
A#|-0~-0-1h3p1-0~-0-3h4p3-0~-0-1h3p1-0~-0---------|
PM     .          .          .          .

continued...

C |-------------------------------------------------|
G |-------------------------------------------------|
D#|-------------------------------------------------|
A#|-0~-0-1h3p1-0~-0-3h4p3-0~-0-1h3p1-0~-0-0-0-0-0-0-|
F |-0~-0-1h3p1-0~-0-3h4p3-0~-0-1h3p1-0~-0-0-0-0-0-0-|
A#|-0~-0-1h3p1-0~-0-3h4p3-0~-0-1h3p1-0~-0-0-0-0-0-0-|
PM     .          .          .          . . . . . .

continued...

C |-----------------------------------------------|
G |-----------------------------------------------|
D#|---------------------------------------5h7p5---|
A#|-0~-0-1h3p1-0~-0-3h4p3-0~-0-1h3p1-0~-0-------7-|
F |-0~-0-1h3p1-0~-0-3h4p3-0~-0-1h3p1-0~-0---------|
A#|-0~-0-1h3p1-0~-0-3h4p3-0~-0-1h3p1-0~-0---------|
PM     .          .          .          .

continued...

C |----------------------------------------------|
G |----------------------------------------------|
D#|----------------------------------------------|
A#|-0~-0-1h3p1-0~-0-3h4p3-0~-0-1h3p1-8~-8-10~-10-|
F |-0~-0-1h3p1-0~-0-3h4p3-0~-0-1h3p1-8~-8-10~-10-|
A#|-0~-0-1h3p1-0~-0-3h4p3-0~-0-1h3p1-8~-8-10~-10-|
PM     .          .          .          .     .


Chorus x4

GUITAR ONE

C |---------------------------------------------|
G |---------------------------------------------|
D#|---------------------------------------------|
A#|-00000000-1010101010101010-88888888-88888888-|
F |-00000000-1010101010101010-88888888-88888888-|
A#|-00000000-1010101010101010-88888888-88888888-|

GUITAR TWO

C |---------------------|  |-----------------------------------------------|
G |---------------------|  |-----------------------------------------------|
D#|-77777777-999-101010-|x2|-----------------------------------------------|
A#|---------------------|  |-12--10h12p10----------12--10h12p10------------|
F |---------------------|  |--------------12p10-12~~------------12p10-12~~-|
A#|---------------------|  |-----------------------------------------------|


Bridge A x8

C |-----------------------------------|
G |-----------------------------------|
D#|-----------------------------------|
A#|-0~~~~~~~~~~~~~~~~~~~~~~~~~~~~~~~~-|
F |-0~~~~~~~~~~~~~~~~~~~~~~~~~~~~~~~~-|
A#|-0~~~~~~~~~~~~~~~~~~~~~~~~~~~~~~~~-|


Bridge B x4

C |------------------------------------|
G |------------------------------------|
D#|------------------------------------|
A#|-0~~~00~0~0~~00~0~0~~00~0~0~0~0~0~~-|
F |-0~~~00~0~0~~00~0~0~~00~0~0~0~0~0~~-|
A#|-0~~~00~0~0~~00~0~0~~00~0~0~0~0~0~~-|
PM  .   .. . .  .. . .  .. . . . . .


Bridge C x4

C |------------------------------------|
G |------------------------------------|
D#|------------------------------------|
A#|-0---00-0-0--00-0-0--00-0-0-0-0-0---|
F |-0---00-0-0--00-0-0--00-0-0-0-0-0---|
A#|-0---00-0-0--00-0-0--00-0-0-0-0-0---|
PM  .   .. . .  .. . .  .. . . . . .


Pre-Verse x1
(Play this with the bass on your EQ turned right down)

C |-------------------------|
G |-------------------------|
D#|-------------------------|
A#|-------------------------|
F |-------------------------|
A#|-0~-0-3h4p3-1~-0-1h3p1-0-|


Intro/Verse x2

C |-----------------------------------------------|
G |-----------------------------------------------|
D#|---------------------------------------5h7p5---|
A#|-0~-0-1h3p1-0~-0-3h4p3-0~-0-1h3p1-0~-0-------7-|
F |-0~-0-1h3p1-0~-0-3h4p3-0~-0-1h3p1-0~-0---------|
A#|-0~-0-1h3p1-0~-0-3h4p3-0~-0-1h3p1-0~-0---------|
PM     .          .          .          .

continued...

C |-------------------------------------------------|
G |-------------------------------------------------|
D#|-------------------------------------------------|
A#|-0~-0-1h3p1-0~-0-3h4p3-0~-0-1h3p1-0~-0-0-0-0-0-0-|
F |-0~-0-1h3p1-0~-0-3h4p3-0~-0-1h3p1-0~-0-0-0-0-0-0-|
A#|-0~-0-1h3p1-0~-0-3h4p3-0~-0-1h3p1-0~-0-0-0-0-0-0-|
PM     .          .          .          . . . . . .

continued...

C |-----------------------------------------------|
G |-----------------------------------------------|
D#|---------------------------------------5h7p5---|
A#|-0~-0-1h3p1-0~-0-3h4p3-0~-0-1h3p1-0~-0-------7-|
F |-0~-0-1h3p1-0~-0-3h4p3-0~-0-1h3p1-0~-0---------|
A#|-0~-0-1h3p1-0~-0-3h4p3-0~-0-1h3p1-0~-0---------|
PM     .          .          .          .

continued...

C |----------------------------------------------|
G |----------------------------------------------|
D#|----------------------------------------------|
A#|-0~-0-1h3p1-0~-0-3h4p3-0~-0-1h3p1-8~-8-10~-10-|
F |-0~-0-1h3p1-0~-0-3h4p3-0~-0-1h3p1-8~-8-10~-10-|
A#|-0~-0-1h3p1-0~-0-3h4p3-0~-0-1h3p1-8~-8-10~-10-|
PM     .          .          .          .     .


Chorus x4

GUITAR ONE

C |---------------------------------------------|
G |---------------------------------------------|
D#|---------------------------------------------|
A#|-00000000-1010101010101010-88888888-88888888-|
F |-00000000-1010101010101010-88888888-88888888-|
A#|-00000000-1010101010101010-88888888-88888888-|

GUITAR TWO

C |---------------------|  |-----------------------------------------------|
G |---------------------|  |-----------------------------------------------|
D#|-77777777-999-101010-|x2|-----------------------------------------------|
A#|---------------------|  |-12--10h12p10----------12--10h12p10------------|
F |---------------------|  |--------------12p10-12~~------------12p10-12~~-|
A#|---------------------|  |-----------------------------------------------|



Outro A

GUITAR ONE

C |-----------------------------------|
G |-----------------------------------|
D#|-----------------------------------|
A#|-0~~~~~~~~~~~~~~~~~~~~~~~~~~~~~~~~-|
F |-0~~~~~~~~~~~~~~~~~~~~~~~~~~~~~~~~-|
A#|-0~~~~~~~~~~~~~~~~~~~~~~~~~~~~~~~~-|

GUITAR TWO

C |-----------------------------------------------------------------|
G |-----------------------------------------------------------------|
D#|-----------------------------------------------------------------|
A#|-------12\10-------------12\10------------12\10------12\10-------|
F |-/8~\7-------12~~~-\8~\7-------12~~~-\8\7-------/8\7-------12~~~-|
A#|-----------------------------------------------------------------|

continued...

C |-------------------------------|
G |-------------------------------|
D#|-------------------------------|
A#|-------12\10-------------12\10-|
F |-/8~\7-------12~~~-\8~\7-------|
A#|-------------------------------|


Outro B x8

GUITAR ONE

C |-------------------------------------------------------------------------|
G |-------------------------------------------------------------------------|
D#|-------------------------------------------------------------------------|
A#|-0-0-0-0-0~~~~~~~~0-0-0-0-0~~~~~~~~0-0-8-8-8-8-8~~~~~~~~5-5-5-5-5~~~~~~~~|
F |-0-0-0-0-0~~~~~~~~0-0-0-0-0~~~~~~~~0-0-8-8-8-8-8~~~~~~~~5-5-5-5-5~~~~~~~~|
A#|-0-0-0-0-0~~~~~~~~0-0-0-0-0~~~~~~~~0-0-8-8-8-8-8~~~~~~~~5-5-5-5-5~~~~~~~~|
PM  . . . .          . . . .          . . . . . .          . . . .

GUITAR TWO

C |------------------------------------------------------|
G |------------------------------------------------------|
D#|------------------------------------------------------|
A#|-------8\7-------------8\7----------8\7-----8\7-------|x4
F |-/5~\3-----8~~~-\5~\3-----8~~~-\5\3-----5\3-----8~~~--|
A#|------------------------------------------------------|
Добавлено: 28.02.2012
Другие материалы по этой песне:
  • Аккорды и текст

Страница создана 28.02.2012
http://primanota.ru/confession/mirrors-chords.htm
Привет, Гость.
Предлагаем пройти революционный курс по гитаре.
Подарок от PrimaNota.Ru, забирай!