PrimaNota.ru - самый крупный в мире бесплатный архив песенных текстов, аккордов, табулатур и нот


Confession - Jealousy - таба, видео

Регистрация Запомнить меня
Войти через:  Facebook Google Twitter Vk Yandex Mail.ru

Confession - Jealousy - таба, видео

Печатать
Просмотров: 181
Уроки эстрадного вокала в Санкт-Петербурге
Drop-C Tuning
Rest of the tab coming soon email trident6669@hotmail.com for questions.

Both Guitars (Distorted)
D--11------14------18------18---18--|
A--15------18------22------22---22--|
F-----------------------------------|
C-----------------------------------|
G-----------------------------------|
C-----------------------------------|


First Guitar
D--------------------------------------------------------------|
A--------------------------------------------------------------|
F--------------------------------------------------------------|
C--------------------------------------------------------------|
G--0-----0-------0---------8-7-7-5-----------------------------|
C--0-0-0-0-0-0-000-0-0-0-0-------------------------------------|
    PM--   PM---   PM------------------------------------------|

D-------------------------------------------------------------|
A-------------------------------------------------------------|
F-------------------------------------------------------------|
C----------------------------6--------------------------------|
G--0-----0-------0---8-7-5-8----------------------------------|
C--0-0-0-0-0-0-000-0------------------------------------------|
    PM--   PM---   PM

Second Guitar
D--------------------------------------------------------------|
A--------------------------------------------------------------|
F--------------------------------------------------------------|
C--------------------------7-5-5-3-----------------------------|
G--0-----0-------0---------------------------------------------|
C--0-0-0-0-0-0-000-0-0-0-0-------------------------------------|
    PM--   PM---   PM------------------------------------------|

D-------------------------------------------------------------|
A-------------------------------------------------------------|
F----------------------------5--------------------------------|
C--------------------7-5-3-7----------------------------------|
G--0-----0-------0--------------------------------------------|
C--0-0-0-0-0-0-000-0------------------------------------------|
   PM--   PM---   PM
Добавлено: 22.06.2012
Другие материалы по этой песне:

Страница создана 26.03.2012
http://primanota.ru/confession/jealousy-chords.htm
Привет, Гость.
Предлагаем пройти революционный курс по гитаре.
Подарок от PrimaNota.Ru, забирай!