PrimaNota.ru - самый крупный в мире бесплатный архив песенных текстов, аккордов, табулатур и нот


Confession - Gimme Add - таба, видео

Регистрация Запомнить меня
Войти через:  Facebook Google Twitter Vk Yandex Mail.ru

Confession - Gimme Add - таба, видео

Печатать
Просмотров: 125
Band: Confession
Song: Gimme A.D.D.
Album: The Long Way Home [2011]

Tuning: Drop G# [G# D# G# C# F A#]


INTRO x4
0:00 - 0:23
[Guitar 2]

A#|-------------8---------------8---|
F |-------6-------6-------6-------6-|
C#|----9-----9---------9-----9------|
G#|-8---------------0---------------|
D#|---------------------------------|
G#|---------------------------------|


VERSE x3
0:23 - 0:42
[Guitar 1]

A#|---------------------------------------------------------|
F |---------------------------------------------------------|
C#|---------------------------------------------------------|
G#|--------------------------------------------10-------7---|
D#|-----------------------------------------------12------8-|
G#|-0~~-0-0000-0-0000-0-0000-0-0~~-0-0000-0-8~-------5~-----|
PM      .      .      .      .     .      .

[Guitar 2]

A#|---------------------------------------------------------|
F |---------------------------------------------------------|
C#|--------------------------------------------9--------5---|
G#|-----------------------------------------------10------7-|
D#|---------------------------------------------------------|
G#|-0~~-0-0000-0-0000-0-0000-0-0~~-0-0000-0-8~-------5~-----|
PM      .      .      .      .     .      .


CHORUS LEAD-IN
0:42 - 0:47
[Both Guitars]

A#|----------------------------------------------------------|
F |----------------------------------------------------------|
C#|----------------------------------------------------------|
G#|-----------------------------------------10101010--101010-|
D#|-----------------------------------------8-8-8-8---101010-|
G#|-0~~-0-0000-0-0000-0-0000-0-0~~-0-0000-0-8-8-8-8---101010-|
PM      .      .      .      .     .      .


CHORUS A x2
0:47 - 0:59
[Both Guitars]

A#|-------------------------------------------------------------------|
F |-------------------------------------------------------------------|
C#|-------------------------------------------------------------------|
G#|-10101010101010101010101010101010----------------------------------|
D#|-8-8-8-8-8-8-8-8-1010101010101010-12121212121212121212121212121212-|
G#|-8-8-8-8-8-8-8-8-1010101010101010-12121212121212121212121212121212-|


CHORUS B
0:59 - 1:08
[Both Guitars]

A#|---------------------------------------|
F |---------------------------------------|
C#|---------------------------------------|
G#|----10----10---10------10-----10----10-|
D#|-88-8---8-8--8-8--1010-10--10-10-10-10-|
G#|-88-8---8-8--8-8--1010-10--10-10-10-10-|
PM  ..     .    .    . .      .     .

A#|-------------------------------------------|
F |-------------------------------------------|
C#|-------------------------------------------|
G#|------12-----12----12------12-----12----12-|
D#|-1212-12--12-12-12-12-1212-12--12-12-12-12-|
G#|-1212-12--12-12-12-12-1212-12--12-12-12-12-|
PM  . .      .  .  .     . .      .     .

A#|---------------------------------------|
F |---------------------------------------|
C#|---------------------------------------|
G#|----10----10---10------10-----10----10-|
D#|-88-8---8-8--8-8--1010-10--10-10-10-10-|
G#|-88-8---8-8--8-8--1010-10--10-10-10-10-|
PM  ..     .    .    . .      .     .


BREAKDOWN 2
1:09 - 1:18
[Both Guitars]

A#|-----------------------------------|
F |-----------------------------------|
C#|-----------------------------------|
G#|-0~~~-------------0~~--------------|
D#|-0~~~-000-000-00000~~--000-000-000-|
G#|-0~~~-000-000-00000~~--000-000-000-|
PM       ... ... ....     ... ... ...

A#|---------------------------|
F |---------------------------|
C#|---------------------------|
G#|-0~~~-------------0~~------|
D#|-0~~~-000-000-00000~~--000-|
G#|-0~~~-000-000-00000~~--000-|
PM       ... ... ....     ... 



INTRO x2
1:19 - 1:31
[Guitar 2]

A#|-------------8---------------8---|
F |-------6-------6-------6-------6-|
C#|----9-----9---------9-----9------|
G#|-8---------------0---------------|
D#|---------------------------------|
G#|---------------------------------|


VERSE
1:31 - 1:42
[Guitar 1]

A#|---------------------------------------------------------|
F |---------------------------------------------------------|
C#|---------------------------------------------------------|
G#|--------------------------------------------10-------7---|
D#|-----------------------------------------------12------8-|
G#|-0~~-0-0000-0-0000-0-0000-0-0~~-0-0000-0-8~-------5~-----|
PM      .      .      .      .     .      .

[Guitar 2]

A#|---------------------------------------------------------|
F |---------------------------------------------------------|
C#|--------------------------------------------9--------5---|
G#|-----------------------------------------------10------7-|
D#|---------------------------------------------------------|
G#|-0~~-0-0000-0-0000-0-0000-0-0~~-0-0000-0-8~-------5~-----|


CHORUS LEAD-IN
1:37 - 1:42
[Both Guitars]

A#|----------------------------------------------------------|
F |----------------------------------------------------------|
C#|----------------------------------------------------------|
G#|-----------------------------------------10101010--101010-|
D#|-----------------------------------------8-8-8-8---101010-|
G#|-0~~-0-0000-0-0000-0-0000-0-0~~-0-0000-0-8-8-8-8---101010-|
PM      .      .      .      .     .      .


CHORUS A x2
1:43 - 1:55
[Both Guitars]

A#|-------------------------------------------------------------------|
F |-------------------------------------------------------------------|
C#|-------------------------------------------------------------------|
G#|-10101010101010101010101010101010----------------------------------|
D#|-8-8-8-8-8-8-8-8-1010101010101010-12121212121212121212121212121212-|
G#|-8-8-8-8-8-8-8-8-1010101010101010-12121212121212121212121212121212-|


CHORUS B x2
1:55 - 2:07
[Both Guitars]

A#|---------------------------------------|
F |---------------------------------------|
C#|---------------------------------------|
G#|----10----10---10------10-----10----10-|
D#|-88-8---8-8--8-8--1010-10--10-10-10-10-|
G#|-88-8---8-8--8-8--1010-10--10-10-10-10-|
PM  ..     .    .    . .      .     .

A#|-------------------------------------------|
F |-------------------------------------------|
C#|-------------------------------------------|
G#|------12-----12----12------12-----12----12-|
D#|-1212-12--12-12-12-12-1212-12--12-12-12-12-|
G#|-1212-12--12-12-12-12-1212-12--12-12-12-12-|
PM  . .      .  .  .     . .      .     .

A#|---------------------------------------|
F |---------------------------------------|
C#|---------------------------------------|
G#|----10----10---10------10-----10----10-|
D#|-88-8---8-8--8-8--1010-10--10-10-10-10-|
G#|-88-8---8-8--8-8--1010-10--10-10-10-10-|
PM  ..     .    .    . .      .     .


SOLO
2:07 - 2:16
[Guitar 1]

A#|---------------------------------------|
F |---------------------------------------|
C#|---------------------------------------|
G#|----10----10---10------10-----10----10-|
D#|-88-8---8-8--8-8--1010-10--10-10-10-10-|
G#|-88-8---8-8--8-8--1010-10--10-10-10-10-|
PM  ..     .    .    . .      .     .

A#|-------------------------------------------|
F |-------------------------------------------|
C#|-------------------------------------------|
G#|------12-----12----12------12-----12----12-|
D#|-1212-12--12-12-12-12-1212-12--12-12-12-12-|
G#|-1212-12--12-12-12-12-1212-12--12-12-12-12-|
PM  . .      .  .  .     . .      .     .

A#|---------------------------------------|
F |---------------------------------------|
C#|---------------------------------------|
G#|----10----10---10------10-----10----10-|
D#|-88-8---8-8--8-8--1010-10--10-10-10-10-|
G#|-88-8---8-8--8-8--1010-10--10-10-10-10-|
PM  ..     .    .    . .      .     .

[Guitar 2]

A#|-12-13-12----------12-13-12----------12-13-12----|
F |----------13----------------13----------------13-|
C#|-------------14~~~-------------14~~~-------------|
G#|-------------------------------------------------|
D#|-------------------------------------------------|
G#|-------------------------------------------------|

A#|----17----------17----------20----------17-------|
F |-18----18-17-18----18-17-18----18-17-18----18-17-|
C#|-------------------------------------------------|
G#|-------------------------------------------------|
D#|-------------------------------------------------|
G#|-------------------------------------------------|

A#|-12-13-12----------12-13-12----------------------|
F |----------13----------------13-------15~~~~~~~~~-|
C#|-------------14~~~-------------14~~~-------------|
G#|-------------------------------------------------|
D#|-------------------------------------------------|
G#|-------------------------------------------------|


BRIDGE A
2:16 - 2:21
[Guitar 1]

A#|---------------------------------|
F |---------------------------------|
C#|---------------------------------|
G#|-0~~~~~~~~~~~~~~~~~~~~~~~~~~~~~~-|
D#|-0~~~~~~~~~~~~~~~~~~~~~~~~~~~~~~-|
G#|-0~~~~~~~~~~~~~~~~~~~~~~~~~~~~~~-|

[Guitar 2]

A#|---------------------------------|
F |-15~~~~~~~~~~~~~~~~~~~~----------|
C#|---------------------------------|
G#|---------------------------------|
D#|---------------------------------|
G#|---------------------------------|


BRIDGE B
2:22 - 2:28
[Both Guitars]

A#|---------------------------------|
F |---------------------------------|
C#|---------------------------------|
G#|-0~~~~~~~~~~~~~~~~~~~~~~~~~~~~~~-|
D#|-0~~~~~~~~~~~~~~~~~~~~~~~~~~~~~~-|
G#|-0~~~~~~~~~~~~~~~~~~~~~~~~~~~~~~-|


BRIDGE C x2
2:28 - 2:40
[Guitar 1]

A#|---------------------------------|
F |---------------------------------|
C#|---------------------------------|
G#|-0~~~~~~~~~~~~~~~~~~~~~~~~~~~~~~-|
D#|-0~~~~~~~~~~~~~~~~~~~~~~~~~~~~~~-|
G#|-0~~~~~~~~~~~~~~~~~~~~~~~~~~~~~~-|

A#|---------------------------------|
F |---------------------------------|
C#|---------------------------------|
G#|-0~~~~~~~~~~~~~~~~~~~~~~~~~------|
D#|-0~~~~~~~~~~~~~~~~~~~~~~~~~------|
G#|-0~~~~~~~~~~~~~~~~~~~~~~~~~------|

[Guitar 2]

A#|-------------8---------------8---|
F |-------6-------6-------6-------6-|
C#|----9-----9---------9-----9------|
G#|-0---------------0---------------|
D#|---------------------------------|
G#|---------------------------------|

A#|-------------8-------------------|
F |-------6-------6-------6---------|
C#|----9-----9---------9-----9------|
G#|-0---------------0---------------|
D#|---------------------------------|
G#|---------------------------------|


BREAKDOWN 3 x2
2:40 - 3:04
[Both Guitars]

A#|-----------------------------------|
F |-----------------------------------|
C#|-----------------------------------|
G#|-0~~~-------------0~~--------------|
D#|-0~~~-000-000-00000~~--000-000-000-|
G#|-0~~~-000-000-00000~~--000-000-000-|
PM       ... ... ....     ... ... ...

A#|----------------------------------------|
F |----------------------------------------|
C#|----------------------------------------|
G#|-0~~~-------------0~~-------------------|
D#|-0~~~-000-000-00000~~--000-----000-0000-|
G#|-0~~~-000-000-00000~~--000-----111-1111-|
PM       ... ... ....     ...     ... ....


END ON
3:04
[Both Guitars]

A#|------|
F |------|
C#|------|
G#|-0~~--|
D#|-0~~--|
G#|-0~~--|
Добавлено: 23.02.2012
Другие материалы по этой песне:

Страница создана 23.02.2012
http://primanota.ru/confession/gimme-add-chords.htm
Привет, Гость.
Предлагаем пройти революционный курс по гитаре.
Подарок от PrimaNota.Ru, забирай!