PrimaNota.ru - самый крупный в мире бесплатный архив песенных текстов, аккордов, табулатур и нот


Confession - Asthma Attack - таба, видео

Регистрация Запомнить меня
Войти через:  Facebook Google Twitter Vk Yandex Mail.ru

Confession - Asthma Attack - таба, видео

Печатать
Просмотров: 105
Band: Confession
Song: Asthma Attack
Album: The Long Way Home [2011]

Tuning: Drop G# [G# D# G# C# F A#]


INTRO
0:00 - 0:08
[Both Guitars]


A#|-----------------------------------------------------------------|
F |-----------------------------------------------------------------|
C#|-----------------------------------------------------------------|
G#|-----------------------------------------------------------------|
D#|-8h12p8----------8h12p8----------5h8p5---------7h10p7------------|
G#|-------h12-0-0---------h12-0-0--------h8-8-8---------h10-10-10---|


A#|------------------------------------------------------------|
F |------------------------------------------------------------|
C#|---------------------------------------10-----------10------|
G#|-----------0~~~~~~~~~~~~~~~~~~~~-10/12----12--12h14----14---|
D#|-8h12p8----0~~~~~~~~~~~~~~~~~~~~----------------------------|
G#|-------h12-0~~~~~~~~~~~~~~~~~~~~----------------------------|


VERSE A x2
0:08 - 0:26
[Both Guitars]

A#|-----------------------------------------------------------------|
F |-----------------------------------------------------------------|
C#|-----------------------------------------------------------------|
G#|-----------------------------------------------------------------|
D#|-8h12p8----------8h12p8----------5h8p5---------7h10p7------------|
G#|-------h12-0-0---------h12-0-0--------h8-8-8---------h10-10-10---|


A#|-------------------------------------------------------------|
F |-------------------------------------------------------------|
C#|----------------------------------------10-----------10------|
G#|----------------------------------10/12----12--12h14----14---|
D#|-8h12p8----------8h12p8--------------------------------------|
G#|-------h12-0-0---------h12-0-0-------------------------------|


VERSE B x4
0:26 - 0:44
[Both Guitars]

A#|---------------------------------------------------------------|
F |---------------------------------------------------------------|
C#|-------------------------------------------------------10------|
G#|-------------------------------------------------12/14----14---|
D#|-8h12p8----------8h12p8----------8h12p8------------------------|
G#|-------h12-0-0---------h12-0-0---------h12-0-0-----------------|


VERSE C x2
0:44 - 1:01
[Guitar 1]

A#|--------------------------------------------|
F |--------------------------------------------|
C#|----------------------------------10--------|
G#|--------------------------------------14----|
D#|-8888888888888888-1010101010101010--------12|
G#|-8888888888888888-1010101010101010----------|

A#|---------------------------------|
F |---------------------------------|
C#|---------------------------------|
G#|---------------------------------|
D#|-00000-----00000-00000-----00000-|
G#|-00000-----00000-00000-----00000-|
PM  .....     ..... .....     .....

[Guitar 2]

A#|---------------------------8------|
F |-10-------10-------8---------8----|
C#|----10-------10------10--------10-|
G#|-------12-------12------10--------|
D#|----------------------------------|
G#|----------------------------------|

A#|---------------------------------|
F |---------------------------------|
C#|---------------------------------|
G#|---------------------------------|
D#|-00000-----00000-00000-----00000-|
G#|-00000-----00000-00000-----00000-|
PM  .....     ..... .....     .....


PRE-CHORUS x2
1:01 - 1:10
[Guitar 2]

A#|----------------------------------------|
F |---------13---------13-------6--------8-|
C#|-----10---------10--------9--------10---|
G#|-12---------12---------7-------10-------|
D#|----------------------------------------|
G#|----------------------------------------|


CHORUS x4
1:10 - 1:27
[Guitar 1]

A#|-------------------------------------------|
F |-------------------------------------------|
C#|-------------------------------------------|
G#|-8---8---8--8---8---8-0---0---0-3---3---3--|
D#|-8---8---8--8---8---8-0---0---0-3---3---3--|
G#|-8---8---8--8---8---8-0---0---0-3---3---3--|

[Guitar 2]

A#|----------------------------------------|
F |---------13---------13-------6--------8-|
C#|-----10---------10--------9--------10---|
G#|-12---------12---------7-------10-------|
D#|----------------------------------------|
G#|----------------------------------------|


VERSE 2 LEAD-IN
1:28 - 1:32
[Both Guitars]

A#|-----------------------------------------------------------------|
F |-----------------------------------------------------------------|
C#|-----------------------------------------------------------------|
G#|-----------------------------------------------------------------|
D#|-8h12p8----------8h12p8----------5h8p5---------7h10p7------------|
G#|-------h12-0-0---------h12-0-0--------h8-8-8---------h10-10------|


VERSE 2
1:32 - 1:49
[Both Guitars]

A#|-----------------------------------------------------------------|
F |-----------------------------------------------------------------|
C#|-----------------------------------------------------------------|
G#|-----------------------------------------------------------------|
D#|-8h12p8----------8h12p8----------5h8p5---------7h10p7------------|
G#|-------h12-0-0---------h12-0-0--------h8-8-8---------h10-10-10---|

A#|-------------------------------------------------------------|
F |-------------------------------------------------------------|
C#|----------------------------------------10-----------10------|
G#|----------------------------------10/12----12--12h14----14---|
D#|-8h12p8----------8h12p8--------------------------------------|
G#|-------h12-0-0---------h12-0-0-------------------------------|

A#|-----------------------------------------------------------------|
F |-----------------------------------------------------------------|
C#|-----------------------------------------------------------------|
G#|-----------------------------------------------------------------|
D#|-8h12p8----------8h12p8----------5h8p5---------7h10p7------------|
G#|-------h12-0-0---------h12-0-0--------h8-8-8---------h10-10-10---|

A#|-----------------------------------------------|
F |-----------------------------------------------|
C#|----------------------------------------10-----|
G#|----------------------------------10/12----12--|
D#|-8h12p8----------8h12p8------------------------|
G#|-------h12-0-0---------h12-0-0-----------------|

[Guitar 1]

A#|-------------|
F |-13----------|
C#|-----12------|
G#|---------15--|
D#|-------------|
G#|-------------|

[Guitar 2]

A#|-------------|
F |-------------|
C#|-10----------|
G#|-----14------|
D#|---------12--|
G#|-------------|


BREAKDOWN
1:50 - 2:08
[Both Guitars]

A#|------------------------------------------------------------------|
F |------------------------------------------------------------------|
C#|------------------------------------------------------------------|
G#|------------------------------------------------------------------|
D#|-00000-----00000-00000-----00000-00000-----00000-00000---0000-000-|
G#|-00000-----00000-00000-----00000-00000-----00000-00000---0000-000-|
PM  .....     ..... .....     ..... .....     ..... .....   .... ...


OUTRO
2:09 - End
[Guitar 1]

A#|------------------------------------------------------------------|
F |------------------------------------------------------------------|
C#|------------------------------------------------------------------|
G#|------------------------------------------------------------------|
D#|-00000-----00000-00000-----00000-00000-----00000-00000---00000----|
G#|-00000-----00000-00000-----00000-00000-----00000-00000---00000----|
PM  .....     ..... .....     ..... .....     ..... .....   .....

[Guitar 2]

A#|----------------------------------------|
F |---------13---------13-------6--------8-|
C#|-----10---------10--------9--------10---|
G#|-12---------12---------7-------10-------|
D#|----------------------------------------|
G#|----------------------------------------|
Добавлено: 04.07.2012
Другие материалы по этой песне:
  • Аккорды и текст

Страница создана 04.07.2012
http://primanota.ru/confession/asthma-attack-chords.htm
Привет, Гость.
Предлагаем пройти революционный курс по гитаре.
Подарок от PrimaNota.Ru, забирай!