PrimaNota.ru - самый крупный в мире бесплатный архив песенных текстов, аккордов, табулатур и нот


Coney Hatch - Monkey Bars - аккорды и текст, таба, видео

Регистрация Запомнить меня
Войти через:  Facebook Google Twitter Vk Yandex Mail.ru

Coney Hatch - Monkey Bars - аккорды и текст, таба, видео

Печатать
Просмотров: 83
Monkey Bars
Coney Hatch
Monkey Bars from Coney Hatch self titled album
Transcribed by Jamie Mayer, Kitchener, Canada


Intro and Vs guitar part

     E        C#  D
e ---x--x--x---x--x--------------------------------------
b ---9--9--9---6--7--------------------------------------
g ---9--9--9---6--7--------------------------------------
d ---9--9--9---6--7--------------------------------------
a ---7--7--7---4--5--------------------------------------
e ---x--x--x---x--x--------------------------------------


Chorus

      D    C     C B A C B A
e ----x----x-----x-x-x-x-x-x-----------------------------
b ----7----5-----5-4-2-5-4-2-----------------------------
g ----7----5-----5-4-2-5-4-2-----------------------------
d ----7----5-----5-4-2-5-4-2-----------------------------
a ----5----3-----3-2-0-3-2-0-----------------------------
e ----x----x-----x-x-x-x-x-x-----------------------------


Chorus walks up to E one fret at a time




     
Добавлено: 20.06.2013
Вам также может быть интересно:
Другие материалы по этой песне:
  • Аккорды и текст

Страница создана 20.06.2013
http://primanota.ru/coney-hatch/monkey-bars-chords.htm
Привет, Гость.
Предлагаем пройти революционный курс по гитаре.
Подарок от PrimaNota.Ru, забирай!