PrimaNota.ru - самый крупный в мире бесплатный архив песенных текстов, аккордов, табулатур и нот


Conducting From The Grave - What Monsters We Have Become Part 1 - таба, видео

Регистрация Запомнить меня
Войти через:  Facebook Google Twitter Vk Yandex Mail.ru

Conducting From The Grave - What Monsters We Have Become Part 1 - таба, видео

Печатать
Просмотров: 107
CONDUCTING FROM THE GRAVE
WHAT MONSTERS HAVE WE BECOME (Pt.1)
TABBED BY andherembrace

C-G-C-F-A-D

*=PALM MUTED


L
                                                        0:06
------------------------------------------------------------|
------------------------------------------------------------|
------------------------------------------------------------|
---------12--10--8--10----------8--10--12--10--12--------11-|
-0----------------------0-----------------------------------|
-0----------------------0-----------------------------------|
R
------------------------------------------------------------|
------------------------------------------------------------|
------------------------------------------------------------|
------------------------------------------------------------|
-0-------8---7---5---7--0------5---7---8---7---8--------7---|
-0-------8---7---5---7--0------5---7---8---7---8--------7---|

L
0:07                                                   0:12
------------------------------------------------------------|
------------------------------------------------------------|
------------------------------------------------------------|
---------12--10--8--10----------8--10--12--10--12~------14--|
-0----------------------0-----------------------------------|
-0----------------------0-----------------------------------|
R
------------------------------------------------------------|
------------------------------------------------------------|
------------------------------------------------------------|
------------------------------------------------------------|
-0-------8---7---5---7--0------5---7---8---7---8--------10--|
-0-------8---7---5---7--0------5---7---8---7---8--------10--|

L
0:13                                                          0:17
------------------------------------------------------------------|
------------------------------------------------------------_-----|
-----------------------------------------------------------/ \----|
12-0-0-10-0-0-8-0-7-0-8-0-7-0-5-0-7-0-0-5-0-0-3-0-2-0-3-0-5-7-5---|
----------------------------------------------------------------5-|
------------------------------------------------------------------|
R
-------------------------------------------------------------------|
-------------------------------------------------------------------|
------------------------------------------------------------_------|
-*--------*--------------------*--*------------------------/ \-----|
------------------------******----------------------****--7-8-7----|
-0--------0-------------000000-0--0-----------------0000--------10-|

1:17                                                                  0:20
L
---------------------------------------------------------------------------|
---------------------------------------------------------------------------|
---------------------------------------------------------------------------|
-12-0-0-10-0-0-12-0-14-0-12-12-15-0-14-0-17-0-0-15-0-0-14-0-14-0-15-0-14~--|
---------------------------------------------------------------------------|
---------------------------------------------------------------------------|
R
----------------------------------------------------------------------------|
----------------------------------------------------------------------------|
----------------------------------------------------------------^---^-------|
-----------*-------------*******-----------------*-------**----7-0-8-0-7----|
----------------------------------------------------------------------------|
-----------0-------------0000000-----------------0-------00-----------------|

L
0:20                                                                                       0:24
------------------------------------------------------------------------------------------------|
--------------------T------------------------------------------------T------T-------T-----T-----|
---______________________---T-_---T-_______-------_______________------_------_------_------_---|
--/                      \---/ \---/       \-----/               \--- / \    / \----/ \----/ \--|
-8-0--5-7-0--5-7-8-10-8-5-0-8-5-0-7-5-0-5-8-12--8-0--5-7-0--5--7--8-10-5-0-13-5-0-12-5-0-10-5-0-|
------------------------------------------------------------------------------------------------|
R
------------------------------------------------------------------------------------------------|
------------------------------------------------------------------------------------------------|
------------------------------------------------------------------------------------------------|
-*---------*-----------*-*-*-*-*-*-*-----------------*--------------------------*-*-*-*-*-*-*-*-|
-8---------8-----------8-8-8-8-8-8-8-----------------8--------------------------8-8-8-8-8-8-8-8-|
-8---------8-----------8-8-8-8-8-8-8-----------------8--------------------------8-8-8-8-8-8-8-8-|

L
0:24                                                                 0:27
------------------------------------------------------------------------|
-------------------T------T-----T------------------------------------PH-|
---___________________-----_-----_______--------------------10-8-7-8-7~-|
--/                   \ --/ \---/       \-----------8-7-5-7-------------|
-8-0-5-7-0--5-7-8-10-5-0-8-5-0-7-5-0-5-7-8--8-7-5-7---------------------|
------------------------------------------------------------------------|
R
--------------------------------------------------------------------------|
--------------------------------------------------------------------------|
--------------------------------------------------------------------------|
--------*----------******-------------------------------------------------|
--------7----------777777-7---let ring------------------------------------|
--------7----------777777-7-----------------------------------------------|

L
0:27                                                          0:30
------------------------------------------------------------------|
------------------------------------------------------------_-----|
-----------------------------------------------------------/ \----|
12-0-0-10-0-0-8-0-7-0-8-0-7-0-5-0-7-0-0-5-0-0-3-0-2-0-3-0-5-7-5---|
----------------------------------------------------------------5-|
------------------------------------------------------------------|
R
-------------------------------------------------------------------|
-------------------------------------------------------------------|
------------------------------------------------------------_------|
-*--------*--------------------*--*------------------------/ \-----|
------------------------******----------------------****--7-8-7----|
-0--------0-------------000000-0--0-----------------0000--------10-|

L
0:30                                                                   0:34
---------------------------------------------------------------------------|
---------------------------------------------------------------------------|
---------------------------------------------------------------------------|
-12-0-0-10-0-0-12-12-14-0-12-12-15-0-14-0-17-0-0-15-0-0-14-0-14-0-15-0-14~-|
---------------------------------------------------------------------------|
---------------------------------------------------------------------------|
R
----------------------------------------------------------------------------|
----------------------------------------------------------------------------|
-----------------------------------------------------------------^---^------|
-----------*-------------*******-----------------*--------**----7-0-8-0-7---|
----------------------------------------------------------------------------|
-----------0-------------0000000-----------------0--------00----------------|

L
0:34                                     0:36
---------------------------------------------|
-------------------T------T-----T------------|
---_____________________-----_-----________--|
--/                     \---/ \---/        \-|
-8-0-5-7-0--5-7-8-10-8-5-0-8-5-0-7-5-0-5-7--8|
---------------------------------------------|
R
--------------------------------------------|
--------------------------------------------|
--------------------------------------------|
-*---------*-----------*-*-*-*-*-*-*--------|
-8---------8-----------8-8-8-8-8-8-8--------|
-8---------8-----------8-8-8-8-8-8-8--------|

L
0:36                                            0:37
-------------------------T-----T------T-----T-------|
----_________________------_------_-----_------_----|
---/                 \----/ \----/ \---/ \----/ \---|
-10-0--7--8-0--8-10-8-0-12-7-0-10-7-0-8-7-0-10-7-0--|
----------------------------------------------------|
----------------------------------------------------|
R
----------------------------------------------------|
----------------------------------------------------|
----------------------------------------------------|
---------*--------------------------*-*-*-*-*-*-*-*-|
---------8--------------------------8-8-8-8-8-8-8-8-|
---------8--------------------------8-8-8-8-8-8-8-8-|


L
 0:37                                              0:39 
   ____________
--/            \ ----_--------_------_------_------_---|
-8--0--5--6--13-5---/ \------/ \----/ \----/ \----/ \--|
------------------12-9-5---14-9-5-15-9-5-14-9-5-12-9-5-|
-------------------------------------------------------|
-------------------------------------------------------|
-------------------------------------------------------|
R
-----------------------------------------------------|
-----------------------------------------------------|
-----------------------------------------------------|
--------pm-------------------*--*--*--*--*--*--------|
--------10------------------10-10-10-10-10-10-10-----|
--------10------------------10-10-10-10-10-10-10-----|

L
0:39                                                 0:41
----_------_------_________------------------------------|
---/ \----/ \----/        \------------------------------|
-15-9-5-14-9-5-12-9-5-0-5--9-----------------------------|
---------------------------------------------------------|
------------------------------/10---8---7---10-----------|
---------------------------------------------------------|
R
--------------------------------------------------------|
--------------------------------------------------------|
--------------------------------------------------------|
--------------------------------------------------------|
-------------------------------10----8---7---10---------|
-------------------------------10----8---7---10---------|

0:41                                                                           0:46
L                                      B
-----------------------------------------------------------------------------------|
-----------------------------------------------------------------------------------|
------------------------------------------------------------------7----------------|
-7-*-*-*-*-----10---10------------------10-7-*-8----*-7---10-8-7----10-8-10-8-7----|
---8-7-8-7-*-*----*----*--8-*-8-10-8-7-------0---10-0---8-----------------------10-|
-----------8-8----8----8----7------------------------------------------------------|


0:46                                                                     0:49
--------------------------------------------------__--------------------------|
-------------------------------------------------/  \-------__----------------|
--10-*-10-*-12-*--9-*--------*------*---*-*----12-10-9-----/  \-----_---------|
-----0----0----0----0--12-10-0-10-8-0-8-0-0--------------12-10-8---/ \--------|
-----------------------------------------------------------------10-8-7-------|
------------------------------------------------------------------------------|

0:49                                                                           0:54
-------------------------------------------------------------------------------|---|---|
-------------------------------------------------------------------------------|PH-|---|
------------------------------------------------------------------7------------|-L-|PH-|
-7-*-*-*-*-----10---10------------------10-7-*-8----*-7---10-8-7----10-8-10-8-7|-7-|-R-|
---8-7-8-7-*-*----*----*--8-*-8-10-8-7-------0---10-0---8----------------------|---|10-|
-----------8-8----8----8----7--------------------------------------------------|---|---|

0:54                                                          0:57
L
--------------------------------------------------__-------------|
-------------------------------------------_-----/  \------------|
--10-*-10-*-12-*--9-*--10-9-*-9-7-*-7-*---/ \---9-10-12-9~-------|
-----0----0----0----0-------0-----0---0--7-8-10------------------|
-----------------------------------------------------------------|
-----------------------------------------------------------------|
R
-----------------------------------------------------------------|
--PH---PH---PH---PH----------------------------------_-----------|
--10-*-10-*-12-*--9-*--------*------*---*----_------/ \----------|
-----0----0----0----0--12-10-0-10-8-0-8-0---/ \---8-10-12-7~-----|
-------------------------------------------7-8-10----------------|
-----------------------------------------------------------------|

0:57                                                                1:01
L
------------------------------------------------------------------------|
---------------------------_--------------------------------------------|
--------------------------/ \-------------------------------------------|
-3-*-*-*-*-----10---8----7-8-7------****7--****9--****10---*-*-*-*12----|
---5-3-5-3-*-*----*---*--------8----55555--77777--88888---1010101010----|
-----------5-5----0---0-------------------------------------------------|
R
----------------------------------------------------------------------|
----------------------------------------------------------------------|
---------------------------_------------------------------------------|
-3-*-*-*-*------7---5-----/ \--------****7--****9--****10---*-*-*-*12-|
---5-3-5-3-*-*----*---*--7-8-7-------55555--77777--88888---1010101010-|
-----------5-5----0---0--------10-------------------------------------|

L
1:01                                          1:05
----------------------8---------------------------|
------6-10-6-8---6-10------------------------8----|
-7--9----------9--------------7---5-7----5-9------|
-------------------------5--8---8-----8-----------|
--------------------------------------------------|
--------------------------------------------------|
R
---------------------------------------------------|
---------------------------------------------------|
---------------------------------------------------|
------7--5-7-------*--10-------3----2-3------*-5---|
--------*----7----10-------------*------3----7-----|
8--8----8------10--------5-5-----5---------7-------|

L
1:05                                                1:09
----------------------8----------------------------------|
------6-10-6-8---6-10------------------------------------|
-7--9----------9--------------7--------------------------|
-------------------------5--8---8-5-7-5------------------|
----------------------------------------8--10--8--7--10--|
---------------------------------------------------------|
R
---------------------------------------------------------|
---------------------------------------------------------|
---------------------------------------------------------|
------7--5-7-------*-10-------3----2-3-2-----------------|
--------*----7----10------------*--------3-10--8--7--10--|
8--8----8------10--------5-5----5----------10--8--7--10--|

PART 0:41-1:09 REPEATS 1:09-1:36

1:36                                                                      1:41
L
------------------------------------------------------------------------------|
------------------------------------------------------------------------------|
----9/10-10/15----12--14-----------------9/10-10/15----12--14-----------------|
--------------------------15---\10-----------------------------15\10--12\7----|
-8----------------------------------8-----------------------------------------|
-8----------------------------------8-----------------------------------------|
R
---------------------------------------------------------------------------|
---------------------------------------------------------------------------|
---------------------------------------------------------------------------|
---------------------------------*-----------------------------------------|
-8|------------------------------8--8--------------------------13\10--12\8-|
-8|------------------------------8--8--------------------------------------|

1:41                                                                        1:47
L
-----------------------------------------------------------------------------------|
-----------------------------------------------------------------------------------|
-----------------------------------------------------------------------------------|
-------7-/8/--12-----8/10---7----------------7/8/--12---8/10------------*--*-*-*--*|
-5-*----------------------------8----5-*----------------------7--8--10-------7-8-10|
-5-5---------------------------------5-5----------------------7--8--10--8-10-------|
R
---------------------------------------------------------------------------------|
---------------------------------------------------------------------------------|
---------------------------------------------------------------------------------|
---------------------------------*----------------------------------*-*--*-*--*--|
-5|------------------------------5--5---------------------7--8--10-------7-8-10--|
-5|------------------------------5--5---------------------7--8--10--8-10---------|

1:47                                                                      1:53
L
------------------------------------------------------------------------------|
------------------------------------------------------------------------------|
----9/10-10/15----12--14-----------------9/10-10/15----12--14-----------------|
--------------------------15---\10-----------------------------15\10--12\7----|
-8----------------------------------8-----------------------------------------|
-8----------------------------------8-----------------------------------------|
R
---------------------------------------------------------------------------|
---------------------------------------------------------------------------|
---------------------------------------------------------------------------|
---------------------------------*-----------------------------------------|
-8|------------------------------8--8--------------------------13\10--12\8-|
-8|------------------------------8--8--------------------------------------|

1:53                                                                         1:58
L
-----------------------------------------------------------------------------------|
-----------------------------------------------------------------------------------|
-----------------------------------------------------------------------------------|
-------7-/8/--12-----8/10---7----------------7/8/--12---8/10------------*--*-*-*--*|
-5-*----------------------------8----5-*----------------------7--8--10-------7-8-10|
-5-5---------------------------------5-5----------------------7--8--10--8-10-------|
R
-------------------------------------------------------------------------------------|
-------------------------------------------------------------------------------------|
-------------------------------------------------------------------------------------|
-------------------------------------*----------------------------------*-*--*-*--*--|
-5|----------------------------------5--5---------------------7--8--10-------7-8-10--|
-5|----------------------------------5--5---------------------7--8--10--8-10---------|


1:59                                                                        2:05
L
--------------------------------------------------------------------------------|
--------------------------------------------------------------------------------|
-------9-10-10/15--12-/14-----------------9-10-10/15--12-/14--------------------|
--------------------------15--\10----------------------------15-\10---12--\7----|
-8-*---------------------------------8-*----------------------------------------|
-8-8---------------------------------8-8----------------------------------------|
R
----------------------------------------------------------------------------------|
-------------/15-\11-/13\10----------------------/15-\11-/13\10-------------------|
-------12/14-------------------9-----------12/14-----------------\9---/10---\5----|
----------------------------------------------------------------------------------|
-8-*---------------------------------8-*------------------------------------------|
-8-8---------------------------------8-8------------------------------------------|

2:05                                                                           2:10
L
-----------------------------------------------------------------------------------|
-----------------------------------------------------------------------------------|
-----------------------------------------------------------------------------------|
-------7-/8/--12-----8/10---7----------------7/8/--12---8/10------------*--*-*-*--*|
-5-*----------------------------8----5-*----------------------7--8--10-------7-8-10|
-5-5---------------------------------5-5----------------------7--8--10--8-10-------|
R
----------------------------------------------------------------------------------|
-------------/10---\6--/8--------------------/10---\6--/8-------------------------|
------5-/7-------------------9--\5------------------------------------------------|
----------------------------------------------------------------------*-*--*-*-*--|
-5-*----------------------------------5-*-------------------7--8--10-------7-8-10-|
-5-5----------------------------------5-5-------------------7--8--10--8-10--------|


2:10                                                                       2:16
L
--------------------------------------------------------------------------------|
--------------------------------------------------------------------------------|
-------9-10-10/15--12-/14-----------------9-10-10/15--12-/14--------------------|
--------------------------15--\10----------------------------15-\10---12--\7----|
-8-*---------------------------------8-*----------------------------------------|
-8-8---------------------------------8-8----------------------------------------|
R
----------------------------------------------------------------------------------|
-------------/15-\11-/13\10----------------------/15-\11-/13\10-------------------|
-------12/14-------------------9-----------12/14-----------------\9---/10---\5----|
----------------------------------------------------------------------------------|
-8-*---------------------------------8-*------------------------------------------|
-8-8---------------------------------8-8------------------------------------------|

2:16                                                                           2:22
L
-----------------------------------------------------------------------------------|
-----------------------------------------------------------------------------------|
---------------/7------------------------------------------------------------------|
-------7-/8-/--------8/10---7----------------7/8--/12---8/10------------*--*-*-*--*|
-5-*----------------------------8----5-*----------------------7--8--10-------7-8-10|
-5-5---------------------------------5-5----------------------7--8--10--8-10-------|
R
----------------------------------------------------------------------------------|
-------------/10---\6--/8--------------------/10---\6--/8-------------------------|
------5-/7-------------------9--\5------------------------------------------------|
----------------------------------------------------------------------*-*--*-*-*--|
-5-*----------------------------------5-*-------------------7--8--10-------7-8-10-|
-5-5----------------------------------5-5-------------------7--8--10--8-10--------|

2:22                                                                           2:27
L
-----------------------------------------------------------------------------------|
-----------------------------------------------------------------------------------|
------9-10-------------9-10---10-\5------------9-10------------9-10----------------|
----------------12-------------------------------------12-------------15\-10-/12-12|
--8-----------------------------------8------------------------------------------12|
--8-----------------------------------8--------------------------------------------|
R
-----------------------------------------------------------------------------------|
-/17--13--15------------------------/17--13--15----------------------------15------|
--------------15--12--14--12---14---------------15--12--14--10--12--14--15---------|
-----------------------------------------------------------------------------------|
-----------------------------------------------------------------------------------|
-----------------------------------------------------------------------------------|

2:27                                                                        2:33
L
--------------------------------------------------------------------------------|
--------------------------------------------------------------------------------|
-------------------14-----------------------------------------------------------|
-----12------12----------15--7-8-----12-----12--8--10-----------*--*--*-*--*----|
-12------13-----------------------13----13------------7--8--10--------7-8-10----|
------------------------------------------------------7--8--10--8--10-----------|
R
----------------------13---------------------------------------------------------|
------------15-----------15--------------15--------------------------------------|
-------14------14-15-----------------14-----14-15--------------10----------------|
----15----------------------------15---------------10--12--14-----14-12-10-------|
-13----------------------------13------------------------------------------12----|
---------------------------------------------------------------------------------|

2:33                                                                           2;38
L
-----------------------------------------------------------------------------------|
-----------------------------------------------------------------------------------|
------9-10-------------9-10---10-\5------------9-10------------9-10----------------|
----------------12-------------------------------------12-------------15\-10-/12-\7|
--8-----------------------------------8--------------------------------------------|
--8-----------------------------------8--------------------------------------------|
R
-----------------------------------------------------------------------------------|
-/17--13--15------------------------/17--13--15----------------------------15------|
--------------15--12--14--12---14---------------15--12--14--10--12--14--15---------|
-----------------------------------------------------------------------------------|
-----------------------------------------------------------------------------------|
-----------------------------------------------------------------------------------|

2:38                                                                        2:44
L
--------------------------------------------------------------------------------|
--------------------------------------------------------------------------------|
-------------------14-----------------------------------------------------------|
-----12------12----------15--7-8-----12-----12--8--10-----------*--*--*-*--*----|
-12------13-----------------------13----13------------7--8--10--------7-8-10----|
------------------------------------------------------7--8--10--8--10-----------|
R
----------------------13---------------------------------------------------------|
------------15-----------15--------------15--------------------------------------|
-------14------14-15-----------------14-----14-15--------------10----------------|
----15----------------------------15---------------10--12--14-----14-12-10-------|
-13----------------------------13------------------------------------------12----|
---------------------------------------------------------------------------------|


RIGHT SIDE RIFF 0:13-0:27 REPEATS 2:44-2:57 W/BOTH GTRS

2:57                                                         3:00
L
------------------------------------------------------------------|
------------------------------------------------------------_-----|
-----------------------------------------------------------/ \----|
12-0-0-10-0-0-8-0-7-0-8-0-7-0-5-5-7-0-0-5-0-0-3-0-2-0-3-0-5-7-5---|
----------------------------------------------------------------5-|
------------------------------------------------------------------|
R
-------------------------------------------------------------------|
-------------------------------------------------------------------|
------------------------------------------------------------_------|
-*--------*--------------------*--*------------------------/ \-----|
------------------------******----------------------****--7-8-7----|
-0--------0-------------000000-0--0-----------------0000--------10-|

3:00                                                                   3:03
L
---------------------------------------------------------------------------|
---------------------------------------------------------------------------|
---------------------------------------------------------------------------|
-12-0-0-10-0-0-12-12-14-0-12-12-15-0-14-0-17-0-0-15-0-0-14-0-14-0-15-0-14~-|
---------------------------------------------------------------------------|
---------------------------------------------------------------------------|
R
----------------------------------------------------------------------------|
----------------------------------------------------------------------------|
----------------------------------------------------------------^---^-------|
-----------*-------------*******-----------------*-------**----7-0-8-0-7----|
----------------------------------------------------------------------------|
-----------0-------------0000000-----------------0-------00-----------------|

3:03                                     3:05
L
---------------------------------------------|
-------------------T------T-----T------------|
---_____________________-----_-----________--|
--/                     \---/ \---/        \-|
-8-0-5-7-0--5-7-8-10-8-5-0-8-5-0-7-5-0-5-7--8|
---------------------------------------------|
R
--------------------------------------------|
--------------------------------------------|
--------------------------------------------|
-*---------*-----------*-*-*-*-*-*-*--------|
-8---------8-----------8-8-8-8-8-8-8--------|
-8---------8-----------8-8-8-8-8-8-8--------|

3:05                                             3:07
L                                          
-------------------------T-----T------T-----T-------|
----_________________------_------_-----_------_----|
---/                 \----/ \----/ \---/ \----/ \---|
-10-0--7--8-0--8-10-8-0-12-7-0-10-7-0-8-7-0-10-7-0--|
----------------------------------------------------|
----------------------------------------------------|
R
----------------------------------------------------|
----------------------------------------------------|
----------------------------------------------------|
---------*--------------------------*-*-*-*-*-*-*-*-|
---------8--------------------------8-8-8-8-8-8-8-8-|
---------8--------------------------8-8-8-8-8-8-8-8-|

3:07                                             3:09
L  
   ____________
--/            \ ----_--------_------_------_------_---|
-8--0--5--6--13-5---/ \------/ \----/ \----/ \----/ \--|
------------------12-9-5---14-9-5-15-9-5-14-9-5-12-9-5-|
-------------------------------------------------------|
-------------------------------------------------------|
-------------------------------------------------------|
R
-----------------------------------------------------|
-----------------------------------------------------|
-----------------------------------------------------|
--------pm-------------------*--*--*--*--*--*--------|
--------10------------------10-10-10-10-10-10-10-----|
--------10------------------10-10-10-10-10-10-10-----|

3:09                                                 3:11
L
----_------_------_________------------------------------|
---/ \----/ \----/        \------------------------------|
-15-9-5-14-9-5-12-9-5-0-5--9-----------------------------|
---------------------------------------------------------|
------------------------------/10---8---7---10-----------|
---------------------------------------------------------|
R
--------------------------------------------------------|
--------------------------------------------------------|
--------------------------------------------------------|
--------------------------------------------------------|
-------------------------------10----8---7---10---------|
-------------------------------10----8---7---10---------|

3:11                                                         3:14
L
------------------------------------------------------------------|
-----------------------------------------------------___----------|
----------------------------------------------------/   \---------|
-12-0-0-10-0-0-8-0-7-0-8-0-7-0-5-0-7-0-0-5-0-0-3-0-2-3-2-3--------|
-----------------------------------------------------------3------|
------------------------------------------------------------------|
R
------------------------------------------------------------------|
----------------------------------------------------------___-----|
---------------------------------------------------------/   \----|
-15-0-0-14-0-0-12-0-10-0-12-0-10-0-8-0-10-0-0-8-0-0-7-0-5-7-5-7---|
----------------------------------------------------------------7-|
------------------------------------------------------------------|

3:14                                                        3:20
B
-----------------------------------------------------------------|
-----------------------------------------------------------------|
-----------------------------------------------------------------|
-*---*----******-*---*-----*---*----******-*---*------****-*-----|
-0---0----000000-0---0-----0---0----000000-0---0------0000-0-----|
-0---0----000000-0---0-----0---0----000000-0---0------0000-0-----|
3:20                                                         3:26
-----------------------------------------------------------------|
-----------------------------------------------------------------|
-----------------------------------------------------------------|
-*---*----******-*---*-----*---*----******-*---*------****-*-----|
-0---0----000000-0---0-----0---0----000000-0---0------0000-0-----|
-0---0----000000-0---0-----0---0----000000-0---0------0000-0-----|
3:26                                                         3:32
-----------------------------------------------------------------|
-----------------------------------------------------------------|
-----------------------------------------------------------------|
-*---*----******-*---*-----*---*----******-*---*------****-*-----|
-0---0----000000-0---0-----0---0----000000-0---0------0000-0-----|
-0---0----000000-0---0-----0---0----000000-0---0------0000-0-----|  
3:32                                                          3;38  
-------------------------------------------------------------------|
-------------------------------------------------------------------|
-------------------------------------------------------------------|
--*---*----******-*---*-----*---*----******----------------****----|
--0---0----000000-0---0-----0---0----000000-0|---0|---0|---0000-0|-|
--0---0----000000-0---0-----0---0----000000-0|---0|---0|---0000-0|-|

3:38                       3:41

--------------------------------|
--------------------------------|
--------------------------------|
----__-------^----8-------------|
---/  \-----8-12-------12---8---|
--0-8-12-7----------------------|
R
HARMONICS
-------------------JUST PAST THE 3RD FRET-----|
-------------------/------MIDDLE OF 3RD FRET--|
-----------------4.1-----/--------------------|
-----------------------3.5---4.1--------------|
----------------------------------------------|
----------------------------------------------|

3:41                                                                          3:49
L
------------------------------------------------------------------------------------|
------------6666------------------------------------------6666----------------------|
------------9999------------------------------------------9999----------------------|
----------------------7--------9-9-10-------------------------------7---5---9-9-10--|
-*-*-***-*-------*-*----*--7---7-7/8---*-*-***-*--0-0-0-0-------*-*---*---*-7-7/8---|
-0-0-000-0-------0-0----0----0---------0-0-000-0--0-0-0-0-------0-0---0---0---------|
R
------------------------------------------------------------------------------------|
------------6666------------------------------------------6666----------------------|
------------9999------------------------------------------9999----------------------|
----------------------3--------5-5-7--------------------------------7-------5-5-7---|
-*-*-***-*-------*-*----*-3--*-3-3/5---*-*-***-*--0-0-0-0-------*-*---*-7-*-3-3/5---|
-0-0-000-0-------0-0----0----0---------0-0-000-0--0-0-0-0-------0-0---0---0---------|

3:50                                                                           3:58
B
-------------------------------------------------------------------------------------|
----------10101010---------------------------------------10101010--------------------|
-----------9-9-9-9----------------------------------------9-9-9-9--------------------|
-----------8-8-8-8------7---------------------------------8-8-8-8-----7--------------|
-*-*-***-*----------*-*---*-7-*-7-7-8--*-*-***-*--8-8-8-8---------*-*---*-7-*-7-7-8--|
-8-8-888-8----------8-8---8---8--------8-8-888-8--8-8-8-8---------8-8---8---8--------|

3:58                                                                              4:07
L
--------------------------------------------------------------------------------------|
------------6666------------------------------------------6666------------------------|
------------9999------------------------------------------9999------------------_-----|
----------------------7--------9-9-10-------------------------------7----------/ \----|
-*-*-***-*-------*-*----*--7-*-7-7/8---*-*-***-*--0-0-0-0-------*-*---*-7-*-7-7-8-7---|
-0-0-000-0-------0-0----0----0---------0-0-000-0--0-0-0-0-------0-0---0---0--------10-|
R
--------------------------------------------------------------------------------------|
------------6666------------------------------------------6666------------------------|
------------9999------------------------------------------9999------------------_-----|
----------------------3--------5-5-7--------------------------------3----------/ \----|
-*-*-***-*-------*-*----*--3-*-3-3/5---*-*-***-*--0-0-0-0-------*-*---*-3-*-3-3-5-3-0-|
-0-0-000-0-------0-0----0----0---------0-0-000-0--0-0-0-0-------0-0---0---0-----------|

4:07                                                                                  4:15
L
------------------------------------------------------------------------------------------|
----------10101010-----------------------------------------10101010-----------------------|
-----------9-9-9-9------------------------------------------9-9-9-9-----------------------|
-----------8-8-8-8-----10-------------^---------------------8-8-8-8-----10-------------^--|
-*-*-***-*----------*-*---*-10-*-10-10-12-*-*-***-*--8-8-8-8---------*-*---*-10-*-10-10-12|
-8-8-888-8----------8-8---8----8----------8-8-888-8--8-8-8-8---------8-8---8----8---------|
R
-----------------------------------------------------------------------------------------|
----------10101010---------------------------------------10101010------------------------|
-----------9-9-9-9----------------------------------------9-9-9-9------------------------|
-----------8-8-8-8------7---------------------------------8-8-8-8-----7------------------|
-*-*-***-*----------*-*---*-7-*-7-7-8--*-*-***-*--8-8-8-8---------*-*---*-7-*-7-7-8------|
-8-8-888-8----------8-8---8---8--------8-8-888-8--8-8-8-8---------8-8---8---8------------|

4:16                                                                           4:24
L
------------------------------------------------------------------------------------|
------------6666------------------------------------------6666----------------------|
------------9999------------------------------------------9999----------------------|
----------------------7--------9-9-10-------------------------------7-------9-9-10--|
-*-*-***-*-------*-*----*--7-*-7-7/8---*-*-***-*--0-0-0-0-------*-*---*-7-*-7-7/8---|
-0-0-000-0-------0-0----0----0---------0-0-000-0--0-0-0-0-------0-0---0---0---------|
R
------------------------------------------------------------------------------------|
------------------------------------------------------------------------------------|
------------------------------------------------------------------------------------|
----------------------3--------5-5-7--------------------------------7-------5-5-7---|
-*-*-***-*-------*-*----*-3--*-3-3/5---*-*-***-*----------------*-*---*-7-*-3-3/5---|
-0-0-000-0-------0-0----0----0---------0-0-000-0----------------0-0---0---0---------|

4:24                                                                                  4:32 
L
-------------------------------------------------------------------------------------------|
-------------------------------------------------------------------------------------------|
-------------------------------------------------------------------------------------------|
-----------------------10-------------^---------------------------------10-------------^---|
-*-*-***-*----------*-*---*-10-*-10-10-12-*-*-***-*------------------*-*---*-10-*-10-10-12-|
-8-8-888-8----------8-8---8----8----------8-8-888-8------------------8-8---8----8----------|
R
-----------------------------------------------------------------------------------------|
----------10101010---------------------------------------10101010------------------------|
-----------9-9-9-9----------------------------------------9-9-9-9------------------------|
-----------8-8-8-8------7---------------------------------8-8-8-8-----7------------------|
-*-*-***-*----------*-*---*-7-*--7-7-8-*-*-***-*--8-8-8-8---------*-*---*-7-*-7-7-8------|
-8-8-888-8----------8-8---8---8--------8-8-888-8--8-8-8-8---------8-8---8---8------------|

4:32                                                                              4:42
L
--------------------------------------------------------------------------------------|
------------6666------------------------------------------6666------------------------|
------------9999------------------------------------------9999------------------_-----|
----------------------7--------9-9-10-------------------------------7----------/ \----|
-*-*-***-*-------*-*----*--7-*-7-7/8---*-*-***-*--0-0-0-0-------*-*---*-7-*-7-7-8-7---|
-0-0-000-0-------0-0----0----0---------0-0-000-0--0-0-0-0-------0-0---0---0--------10-|
R
--------------------------------------------------------------------------------------|
--------------------------------------------------------------------------------------|
--------------------------------------------------------------------------------_-----|
----------------------3--------5-5-7--------------------------------3----------/ \----|
-*-*-***-*-------*-*----*--3-*-3-3/5---*-*-***-*----------------*-*---*-3-*-3-3-5-3-0-|
-0-0-000-0-------0-0----0----0---------0-0-000-0----------------0-0---0---0-----------|

4;42                                                                                  4:50 
L
-------------------------------------------------------------------------------------------|
-------------------------------------------------------------------------------------------|
-------------------------------------------------------------------------------------------|
-----------------------10-------------^---------------------------------10-------------^---|
-*-*-***-*----------*-*---*-10-*-10-10-12-*-*-***-*------------------*-*---*-10-*-10-10-12-|
-8-8-888-8----------8-8---8----8----------8-8-888-8------------------8-8---8----8----------|
R
-----------------------------------------------------------------------------------------|
----------10101010---------------------------------------10101010------------------------|
-----------9-9-9-9----------------------------------------9-9-9-9------------------------|
-----------8-8-8-8------7---------------------------------8-8-8-8-----7------------------|
-*-*-***-*----------*-*---*-7-*-7-7-8--*-*-***-*--8-8-8-8---------*-*---*-7-*-7-7-8------|
-8-8-888-8----------8-8---8---8--------8-8-888-8--8-8-8-8---------8-8---8---8------------|

4:50              END
L
---------------------|
---------------------|
---------------------|
-----------8-10------|
-*-12/13-*-----------|
-8-------8-----------|
R
---------------------|
---------------------|
---------------------|
---------------------|
-*-8-10-*-10-12------|
-8------8------------|

Добавлено: 07.04.2012
Другие материалы по этой песне:
  • Аккорды и текст

Страница создана 07.04.2012
http://primanota.ru/conducting-from-the-grave/what-monsters-we-have-become-part-1-chords.htm
Привет, Гость.
Предлагаем пройти революционный курс по гитаре.
Подарок от PrimaNota.Ru, забирай!