PrimaNota.ru - самый крупный в мире бесплатный архив песенных текстов, аккордов, табулатур и нот


Conducting From The Grave - We Who Shall Conquer - таба, видео

Регистрация Запомнить меня
Войти через:  Facebook Google Twitter Vk Yandex Mail.ru

Conducting From The Grave - We Who Shall Conquer - таба, видео

Печатать
Просмотров: 66
CONDUCTING FROM THE GRAVE
WE WHO SHALL CONQUER
CGCFAD

*=PALM MUTE
^=HAMMER ON/PULL OFF
|=STOP NOTE
T=TAP WITH RIGHT HAND

TABBED BY andherembrace

L
----------------------------------------------------------------|
----------------------------------------------------------------|
----------------------------------------------------------------|
----*-------^--10-8-7-*-*--*---------*-------^--10-8-7-*-*--*---|
*--*8-12--10-12-------7-8-10-12-*---*8-12--10-12-------7-8-10-12|
8-12-----------------------------8-12---------------------------|
R
--------------------------------------------------------------|
--------------------------------------------------------------|
--------------------------------------------------------------|
***-0-------***-0-0-0-***-0------***-0-------***-0-0-0-***-0--|
000-0-------000-0-0-0-000-0------000-0-------000-0-0-0-000-0--|
000-0-------000-0-0-0-000-0------000-0-------000-0-0-0-000-0--|


0:04
L
----------------------------------------------------------|
----------------------------------------------------------|
----------------------------------------------------------|
----*--------5-----*-*-*-7---------*------^---7------10---|
*-*-5-8--7-8---8-7-5-7-8------*--*-7-10--8-10---10-8------|
5-8---------------------------7-10------------------------|
R
----------------------------------------------------------|
----------------------------------------------------------|
----------------------------------------------------------|
***-8--------***-8-8-8-***-8--***-5---***-7-7-7-7---------|
888-8--------888-8-8-8-888-8--555-5---555-7-7-7-7---------|
888-8--------888-8-8-8-888-8--555-5---555-7-7-7-7---------|


0;09
L
---------------------------------------------------|
---------_---------------_-------------------------|
--------/ \---T---------/ \---T---^---T---^---T----|
---_---0-8-12-15---_---0-8-12-15-8-12-17-8-12-19---|
--/ \-------------/ \------------------------------|
-0-8-12----------0-8-12----------------------------|
R
---------------------------------------------------|
---------------------------------------------------|
---------_----------------_------------------------|
---_----/ \---T----_-----/ \---T---^---T---^----T--|
--/ \--0-8-12-17--/ \---0-8-12-17-8-12-19-8-12-20--|
-0-8-12----------0-8-12----------------------------|


0:11
L
---------------------------------------------------|
---------_---------------_-------------------------|
--------/ \---T---------/ \---T---^---T---^---T----|
---_---0-8-12-15---_---0-8-12-15-8-12-17-8-12-19---|
--/ \-------------/ \------------------------------|
-0-8-12----------0-8-12----------------------------|
R
---------------------------------------------------|
---------------------------------------------------|
---------_----------------_------------------------|
---_----/ \---T----_-----/ \---T---^---T---^----T--|
--/ \--0-8-12-17--/ \---0-8-12-17-8-12-15-8-12-17--|
-0-8-12----------0-8-12----------------------------|

0:13
L
----------------------------------------------|
--------_--------------_----------------------|
-------/ \--T---------/ \--T---^--T---^--T----|
--_---0-5-8-11---_---0-5-8-11-5-8-12-5-8-11---|
-/ \------------/ \---------------------------|
0-5-8----------0-5-8--------------------------|
R
-----------------------------------------------|
-----------------------------------------------|
--------_---------------_----------------------|
--_----/ \--T-----_----/ \--T---^--T---^--T----|
-/ \--0-5-8-12---/ \--0-5-8-12-5-8-13-5-8-12---|
0-5-8-----------0-5-8--------------------------|


0:15
L
----------------------------------------------------|
---------_------------------------------------------|
--------/ \--T--^--T---^--T---^--T---^--T--^------^-|
---_---0-3-7-8-3-7-10-3-7-12-3-7-10-3-7-8-3-7-10-3-7|
--/ \-----------------------------------------------|
-0-3-7----------------------------------------------|
R
-------------------------------------------------------|
-------------------------------------------------------|
---------_---------------------------------------------|
---_----/ \--T---^--T---^--T---^--T---^---T--^--T---^--|
--/ \--0-3-7-10-3-7-12-3-7-13-3-7-12-3-7-10-3-7-12-3-7-|
-0-3-7-------------------------------------------------|


0:18
L
---------------------------------------------------|
---------_---------------_-------------------------|
--------/ \---T---------/ \---T---^---T---^---T----|
---_---0-8-12-15---_---0-8-12-15-8-12-17-8-12-19---|
--/ \-------------/ \------------------------------|
-0-8-12----------0-8-12----------------------------|
R
---------------------------------------------------|
---------------------------------------------------|
---------_----------------_------------------------|
---_----/ \---T----_-----/ \---T---^---T---^----T--|
--/ \--0-8-12-17--/ \---0-8-12-17-8-12-19-8-12-20--|
-0-8-12----------0-8-12----------------------------|



L
---------------------------------------------------|
---------_---------------_-------------------------|
--------/ \---T---------/ \---T---^---T---^---T----|
---_---0-8-12-15---_---0-8-12-15-8-12-17-8-12-19---|
--/ \-------------/ \------------------------------|
-0-8-12----------0-8-12----------------------------|
R
---------------------------------------------------|
---------------------------------------------------|
---------_----------------_------------------------|
---_----/ \---T----_-----/ \---T---^---T---^----T--|
--/ \--0-8-12-17--/ \---0-8-12-17-8-12-15-8-12-17--|
-0-8-12----------0-8-12----------------------------|


L
----------------------------------------------|
--------_--------------_----------------------|
-------/ \--T---------/ \--T---^--T---^--T----|
--_---0-5-8-11---_---0-5-8-11-5-8-12-5-8-11---|
-/ \------------/ \---------------------------|
0-5-8----------0-5-8--------------------------|
R
-----------------------------------------------|
-----------------------------------------------|
--------_---------------_----------------------|
--_----/ \--T-----_----/ \--T---^--T---^--T----|
-/ \--0-5-8-12---/ \--0-5-8-12-5-8-13-5-8-12---|
0-5-8-----------0-5-8--------------------------|


L
--------------------------------------------------|
---------_----------------------------------------|
--------/ \--T--^--T---^--T---^--T---^--T---------|
---_---0-3-7-8-3-7-10-3-7-12-3-7-10-3-7-/10\------|
--/ \---------------------------------------------|
-0-3-7--------------------------------------------|
R
-------------------------------------------------|
-------------------------------------------------|
---------_---------------------------------------|
---_----/ \--T---^--T---^--T---^--T---^----------|
--/ \--0-3-7-10-3-7-12-3-7-13-3-7-12-3-7--/12\---|
-0-3-7-------------------------------------------|


0:27
B
------------------------------------------------------------------|
------------------------------------------------------------------|
------------------------------------------------------------------|
------------------------------------------------------------------|
-***------***-*-*-*-***----******---***-*-*-*-******-*-*-*-***----|
-000-0|---000-0-0-0-000-0|-000000---000-0-0-0-000000-0-0-0-000-0|-|

-------------------------------------------------------|
-------------------------------------------------------|
-------------------------------------------------------|
-------------------------------------------------------|
-***------***-*-*-*-***-----***-8---***-*-*-*-***-7----|
-000-0|---000-0-0-0-000-0|--888-8|--888-5-5-5-777-7\---|

0:37
B
------------------------------------------------------------------|
------------------------------------------------------------------|
------------------------------------------------------------------|
------------------------------------------------------------------|
-***------***-*-*-*-***----******---***-*-*-*-******-*-*-*-***----|
-000-0|---000-0-0-0-000-0|-000000---000-0-0-0-000000-0-0-0-000-0|-|

-------------------------------------------------------|
-------------------------------------------------------|
-------------------------------------------------------|
-------------------------------------------------------|
-***------***-*-*-*-***-----***-8---***-*-*-*-***-7----|
-000-0|---000-0-0-0-000-0|--888-8|--888-5-5-5-777-7\---|


0:48
B
------------------------------------------------------------------|
------------------------------------------------------------------|
------------------------------------------------------------------|
-****-----***-*-*-*-****---******---***-*-*-*-******-*-*-*-****---|
-0000-----000-0-0-0-0000---000000---000-0-0-0-000000-0-0-0-0000---|
-0000-----000-0-0-0-0000---000000---000-0-0-0-000000-0-0-0-0000---|


0:55
L
------------------------------------------------------------|
------------------------------------------------------------|
------------------------------------------------------------|
-****-----***-*-*-*-****--****-*-*-12-10-8-10-8-------------|
-0000-----000-0-0-0-0000--8888-8-8--------------12-10-12----|
-0000-----000-0-0-0-0000--8888-8-8--------------------------|
R
------------------------------------------------------------|
------------------------------------------------------------|
-----------------------------------12-10-8-10-8-------------|
-****-----***-*-*-*-****--****-*-*--------------12-10-12----|
-0000-----000-0-0-0-0000--8888-8-8--------------------------|
-0000-----000-0-0-0-0000--8888-8-8--------------------------|

0:59
L
-------------------------------------------------------------|
-------_-----------------------------------------------------|
------/ \------------------------------------10|-14|-12|-----|
-----5-7-8----------^--10--7--------7-------------------14|--|
--**-------7-*-7-*-7-8-------*-10-*---*-10-*-----------------|
0-00---------7---7-----------7----7---7----7-----------------|
R
-------------------------------------------------------------|
-------_-----------------------------------------------------|
------/ \------------------------------------7|-10|-9|-------|
-----5-7-8----------^--10--7--------7------------------10|---|
--**-------7-*-7-*-7-8-------*-10-*---*-10-*-----------------|
0-00---------7---7-----------7----7---7----7-----------------|

1:03
L
-----------------------------------------------------------------------|
-----------------------------------------------------------------------|
---------------------------12-14-12--12-14-15-------------^----------^-|
---------15\14----15\14------------14--------------------7-3-*------5-2|
-10-*--*--------*--------*--------------------*-*-*-5-***----5-3-***---|
-10-10-10------10-------10-------------------10-9-7-5-555------3-333---|
R
-----------------------------------------------------------------------|
-----------------------------------------------------------------------|
-----------^--------^------9-10-9----9-10-12--------------^----------^-|
---------12-10----12-10-----------10---------------------7-3-*------5-2|
-10-*--*--------*--------*--------------------*-*-*-5-***----5-3-***---|
-10-10-10------10-------10-------------------10-9-7-5-555------3-333---|


1:08
B
--------------------------------------------------|
----------------------------^---------------------|
-----------------3-----3---3-4--------------------|
-*------------------------------------------------|
-3-2-***-*-*-*-*---*-*---*-----1-2-***-*-*-*-*----|
---2-111-1-1-1-1---1-1---1-----1-2-111-1-1-1-1----|

1:12
L
-----------------------------------------|
-----------------------------------------|
-----------------------------------------|
-*-*-*-*--*-*-*-*-12-10-8-10-8-----------|
-8-7-5-7-10-8-7-8--------------12-10-12--|
-----------------------------------------|
R
-----------------------------------------|
-----------------------------------------|
-*-*-*-*--*-*-*-*-12-10-8-10-8-----------|
-8-7-5-7-10-8-7-8--------------12-10-12--|
-----------------------------------------|
-----------------------------------------|


L
-------------------------------------------------------------|
-------_-----------------------------------------------------|
------/ \------------------------------------10|-14|-12|-----|
-----5-7-8----------^--10--7--------7-------------------14|--|
--**-------7-*-7-*-7-8-------*-10-*---*-10-*-----------------|
0-00---------7---7-----------7----7---7----7-----------------|
R
-------------------------------------------------------------|
-------_-----------------------------------------------------|
------/ \------------------------------------7|-10|-9|-------|
-----5-7-8----------^--10--7--------7------------------10|---|
--**-------7-*-7-*-7-8-------*-10-*---*-10-*-----------------|
0-00---------7---7-----------7----7---7----7-----------------|


L
-----------------------------------------------------------------------|
-----------------------------------------------------------------------|
---------------------------12-14-12--12-14-15-------------^----------^-|
---------15\14----15\14------------14--------------------7-3-*------5-2|
-10-*--*--------*--------*--------------------*-*-*-5-***----5-3-***---|
-10-10-10------10-------10-------------------10-9-7-5-555------3-333---|
R
-----------------------------------------------------------------------|
-----------------------------------------------------------------------|
-----------^--------^------9-10-9----9-10-12--------------^----------^-|
---------12-10----12-10-----------10---------------------7-3-*------5-2|
-10-*--*--------*--------*--------------------*-*-*-5-***----5-3-***---|
-10-10-10------10-------10-------------------10-9-7-5-555------3-333---|


B
--------------------------------------------------|
----------------------------^---------------------|
-----------------3-----3---3-4--------------------|
-*------------------------------------------------|
-3-2-***-*-*-*-*---*-*---*-----1-2-***-*-*-*-*----|
---2-111-1-1-1-1---1-1---1-----1-2-111-1-1-1-1----|

1:28
B
------------------------------------|
------------------------------------|
------------------------------------|
-8-7-5-7-10-8-7-8-------------------|
------------------6-5-3-5-3---------|
----------------------------6-5-6---|


1:31 HIGH NOTES ARE SEMI PINCH HARMONICS
L
-----------------------------^-------------------------------^--|
-----------------3----3-----3-4-----------------3-----3-----3-4-|
----------------------------------------------------------------|
-^-------------------------------^------------------------------|
2-1-*-*-*-*-*-*---*-*---*-*-----2-1-*-*-*-*-*-*---*-*---*-*-----|
2-1-1-1-1-1-1-1---1-1---1-1-----2-1-1-1-1-1-1-1---1-1---1-1-----|
R
----------------------------------------------------------------|
-----------------------------^-------------------------------^--|
----------------3-----3-----3-4-----------------3-----3-----3-4-|
-^-------------------------------^------------------------------|
2-1-*-*-*-*-*-*---*-*---*-*-----2-1-*-*-*-*-*-*---*-*---*-*-----|
2-1-1-1-1-1-1-1---1-1---1-1-----2-1-1-1-1-1-1-1---1-1---1-1-----|

1:35
L
-----------------------------^-----------------------------------|
----------------3-----3-----3-4----------------------------------|
-----------------------------------------------------------------|
-^-------------------------------*-*-*-*-*-*-*-*-*-*-*-*-*-*-*-*-|
2-1-*-*-*-*-*-*---*-*---*-*------4-3-1-3-6-4-3-4-7-6-4-6-4-2-1-2-|
2-1-1-1-1-1-1-1---1-1---1-1--------------------------------------|
R
-----------------------------------------------------------------|
-----------------------------^-----------------------------------|
----------------3-----3-----3-4----------------------------------|
-^---------------------------------------------------------------|
2-1-*-*-*-*-*-*---*-*---*-*------*-*-*-*-*-*-*-*-*-*-*-*-*-*-*-*-|
2-1-1-1-1-1-1-1---1-1---1-1------4-3-1-3-6-4-3-4-7-6-4-6-4-2-1-2-|


L
-----------------------------^-------------------------------^--|
-----------------3----3-----3-4-----------------3-----3-----3-4-|
----------------------------------------------------------------|
-^-------------------------------^------------------------------|
2-1-*-*-*-*-*-*---*-*---*-*-----2-1-*-*-*-*-*-*---*-*---*-*-----|
2-1-1-1-1-1-1-1---1-1---1-1-----2-1-1-1-1-1-1-1---1-1---1-1-----|
R
----------------------------------------------------------------|
-----------------------------^-------------------------------^--|
----------------3-----3-----3-4-----------------3-----3-----3-4-|
-^-------------------------------^------------------------------|
2-1-*-*-*-*-*-*---*-*---*-*-----2-1-*-*-*-*-*-*---*-*---*-*-----|
2-1-1-1-1-1-1-1---1-1---1-1-----2-1-1-1-1-1-1-1---1-1---1-1-----|


L
-----------------------------^-----------------------------------|
----------------3-----3-----3-4----------------------------------|
-----------------------------------------------------------------|
-^-------------------------------*-*-*-*-*-*-*-*-*-*-*-*-*-*-*-*-|
2-1-*-*-*-*-*-*---*-*---*-*------4-3-1-3-6-4-3-4-7-6-4-6-4-2-1-2-|
2-1-1-1-1-1-1-1---1-1---1-1--------------------------------------|
R
-----------------------------------------------------------------|
-----------------------------^-----------------------------------|
----------------3-----3-----3-4----------------------------------|
-^---------------------------------------------------------------|
2-1-*-*-*-*-*-*---*-*---*-*------*-*-*-*-*-*-*-*-*-*-*-*-*-*-*-*-|
2-1-1-1-1-1-1-1---1-1---1-1------4-3-1-3-6-4-3-4-7-6-4-6-4-2-1-2-|


1:49
L
---------------------------------|
-----------------3----1----^-----|
--------------------------2-0----|
--^---------------------------2--|
-2-1-*-*-*-*-*-*----*---*--------|
-2-1-1-1-1-1-1-1----1---1--------|
R
---------------------------------|
---------------------------------|
-----------------3----2----^-----|
--^-----------------------3-2----|
-2-1-*-*-*-*-*-*----*---*-----3--|
-2-1-1-1-1-1-1-1----1---1--------|

1:51
L
----------------------------------------------------------|
----------------------------------------------------------|
---------_--------------------12121212101099101099--------|
--_-----/ \---1212121210101212--------------------1010----|
-/ \---0-8-12---------------------------------------------|
0-8-12----------------------------------------------------|
R
-----------------------------------------------------------|
--------_-------------------101010108810101010111113131313-|
-------/ \--10101010----1010-------------------------------|
--_---0-8-12--------1212-----------------------------------|
-/ \-------------------------------------------------------|
0-8-12-----------------------------------------------------|

1:53
L
----------------------------------------------------|
----------------------------------------------------|
---------_------------------------------------------|
--_-----/ \---12121212101012121010101088778877------|
-/ \---0-8-12---------------------------------8888--|
0-8-12----------------------------------------------|
R
-----------------------------------------------------------|
--------_--------------------------------------------------|
-------/ \---101010109910109999----------------------------|
--_---0-8-12--------------------121210101010---------------|
-/ \-----------------------------------------131312121212--|
0-8-12-----------------------------------------------------|

1:55
L
---------------------------------------------------|
---------------------------------------------------|
--------_---------------3333-----------------------|
--_----/ \---7777-55-77------77-557755-3333--------|
-/ \--0-3-7----------------------------------------|
0-3-7----------------------------------------------|
R
---------------------------------------------------|
---------_--------^--T---^--T---^--T---^--T---^----|
--------/ \------3-7-12-3-7-14-3-7-15-3-7-14-3-7---|
--_----0-3-7/8\7-----------------------------------|
-/ \-----------------------------------------------|
0-3-7----------------------------------------------|

1:58
L
---------------------------------------------------|
---------------------------------------------------|
---------_--------------9999-1010-9999-77----------|
---_----/ \--8888-77-88------------------1010------|
--/ \--0-5-8---------------------------------------|
-0-5-8---------------------------------------------|
R
----------------------------------------------------------|
-11111111-1010-888888-------------------------------------|
----------------------10101010-9999-1010-9999-77----------|
-------------------------------------------------10101010-|
----------------------------------------------------------|
----------------------------------------------------------|


L
----------------------------------------------------------|
----------------------------------------------------------|
---------_--------------------12121212101099101099--------|
--_-----/ \---1212121210101212--------------------1010----|
-/ \---0-8-12---------------------------------------------|
0-8-12----------------------------------------------------|
R
-----------------------------------------------------------|
--------_-------------------101010108810101010111113131313-|
-------/ \--10101010----1010-------------------------------|
--_---0-8-12--------1212-----------------------------------|
-/ \-------------------------------------------------------|
0-8-12-----------------------------------------------------|

L
----------------------------------------------------|
----------------------------------------------------|
---------_------------------------------------------|
--_-----/ \---12121212101012121010101088778877------|
-/ \---0-8-12---------------------------------8888--|
0-8-12----------------------------------------------|
R
-----------------------------------------------------------|
--------_--------------------------------------------------|
-------/ \---101010109910109999----------------------------|
--_---0-8-12--------------------121210101010---------------|
-/ \-----------------------------------------131312121212--|
0-8-12-----------------------------------------------------|

L
---------------------------------------------------|
---------------------------------------------------|
--------_---------------3333-----------------------|
--_----/ \---7777-55-77------77-557755-3333--------|
-/ \--0-3-7----------------------------------------|
0-3-7----------------------------------------------|
R
---------------------------------------------------|
---------_--------^--T---^--T---^--T---^--T---^----|
--------/ \------3-7-12-3-7-14-3-7-15-3-7-14-3-7---|
--_----0-3-7/8\7-----------------------------------|
-/ \-----------------------------------------------|
0-3-7----------------------------------------------|

2:06
L
------------------------------------------|
--------_-----_-------------------_-------|
-------/ \---/ \-----_-----------/ \------|
--_---0-5-8-0-8-12--/ \-----_---0-5-8-7|--|
-/ \---------------0-8-12--/ \------------|
0-5-8---------------------0-5-8-----------|
R
-------------------------------------------------|
---------_------__---------------------_---------|
--------/ \----/  \-----__------------/ \--------|
--_----0-8-12-0-12-15--/  \-----_----0-8-12-10---|
-/ \------------------0-12-15--/ \---------------|
0-8-12------------------------0-8-12-------------|


R
---------------------------|
---------------------------|
---------------------------|
-7777------7777----77------|
-8888|-----8888|---88------|
---------------------------|


2:12
L
--------------------------------------------------------|
------------------------10------13\---------------------|
-9--10--5--7--)(--7--10-----12------9--10--5--7--)(-----|
-------------7----------------------------------7-------|
--------------------------------------------------------|
--------------------------------------------------------|
R
--------------------------------------------------------|
--------------------------------------------------------|
--------------------------------------------------------|
-77777--7777--777---7777---7777---77--77777--7777--777--|
-88888--8888--888---8888|--8888|--88--88888--8888--888--|
-88888--8888--888---------------------88888--8888--888--|

2:19
L
------------------------------------------|
------------------------------------------|
-12-------------------17---15--14-12-14---|
-----8--12--10--15-12---------------------|
------------------------------------------|
------------------------------------------|
R
------------------------------------------|
------------------------------------------|
------------------------------------------|
------------------------------------------|
-3333---3333-3-3-3------7777--7777--77----|
-5555---5555-5-5-5------8888--8888--88----|

2:23
L
------------------------------__----------|
-----------------------------/  \---------|
-12-------------------17---16-17-16-14-16-|
-----8--12--10--15-12---------------------|
------------------------------------------|
------------------------------------------|
R
------------------------------------------|
------------------------------------------|
------------------------------------------|
------------------------------------------|
-3333---3333-3-3-3------8888-10-----------|
-5555---5555-5-5-5------8888-10-----------|


2:28
L
------------------------------------|
-------10------13\------------------|
-7--10-----12------9--10--5--7--)(--|
-------------------------------7----|
------------------------------------|
------------------------------------|
R
-----------------------------------|
-----------------------------------|
-----------------------------------|
-7777--7777--77---77777--7777--777-|
-8888|-8888|-88---88888--8888--888-|
------------------88888--8888--888-|

L
------------------------------------|
-------10------13\------------------|
-7--10-----12------9--10--5--7--)(--|
-------------------------------7----|
------------------------------------|
------------------------------------|
R
-----------------------------------|
-----------------------------------|
-----------------------------------|
-7777--7777--77---77777--7777--777-|
-8888|-8888|-88---88888--8888--888-|
------------------88888--8888--888-|

2:36
L
------------------------------------------|
------------------------------------------|
-12-------------------17---15--14-12-14---|
-----8--12--10--15-12---------------------|
------------------------------------------|
------------------------------------------|
R
------------------------------------------|
------------------------------------------|
------------------------------------------|
------------------------------------------|
-3333---3333-3-3-3------7777--7777--77----|
-5555---5555-5-5-5------8888--8888--88----|

2:42
L
------------------------------__----------|
-----------------------------/  \---------|
-12-------------------17---16-17-16-14-16-|
-----8--12--10--15-12---------------------|
------------------------------------------|
------------------------------------------|
R
------------------------------------------|
------------------------------------------|
------------------------------------------|
------------------------------------------|
-3333---3333-3-3-3------8888-10-----------|
-5555---5555-5-5-5------8888-10-----------|


2:46
L
-------------------------------------------------------|
-----10--------13--------17--------20------------------|
----------10--------14--------17-----------------------|
-7---------------------------------------14-15-14-12---|
-------------------------------------------------------|
-------------------------------------------------------|
R
------------------------------------------------------|
------------------------------------8-----------------|
----------------5---------9---------------------------|
-*-*-*-7--*-*-*----*-*-*-----*-*-*-------7--8--7--5---|
-5-5-5----5-5-5----5-5-5-----5-5-5--------------------|
------------------------------------------------------|

2:50
L
---------------------------------------------------------|
-------------------------------------17--13-15-13-11-13--|
-----10---------14---------17---14-----------------------|
-----------12---------15---------------------------------|
-8-------------------------------------------------------|
---------------------------------------------------------|
R
----------------------------------------5--6--5---5------|
------------------------------------------------8--------|
---------------------------------------------------------|
-*-*-*-0--*-*-*--2--*-*-*--3--*-*-*-5--------------------|
-1-1-1----1-1-1-----1-1-1-----1-1-1----------------------|
---------------------------------------------------------|


L
--------------------------------------------------------|
-----10--------13--------17--------20-------------------|
----------10--------14--------17------------------------|
-7---------------------------------------14-15-14-12----|
--------------------------------------------------------|
--------------------------------------------------------|
R
------------------------------------------------------|
------------------------------------8-----------------|
----------------5---------9---------------------------|
-*-*-*-7--*-*-*----*-*-*-----*-*-*-------7--8--7--5---|
-5-5-5----5-5-5----5-5-5-----5-5-5--------------------|
------------------------------------------------------|

L
---------------------------------------------------------|
-------------------------------------17--13-15-13-11-13--|
-----10---------14---------17---14-----------------------|
-----------12---------15---------------------------------|
-8-------------------------------------------------------|
---------------------------------------------------------|
R
----------------------------------------5--6--5---5------|
------------------------------------------------8--------|
---------------------------------------------------------|
-*-*-*-0--*-*-*--2--*-*-*--3--*-*-*-5--------------------|
-1-1-1----1-1-1-----1-1-1-----1-1-1----------------------|
---------------------------------------------------------|

3:03
L
------------------------------------------------------|
-----10--------13--------17--------20-----------------|
----------10--------14--------17--------19------------|
-7----------------------------------------------------|
------------------------------------------------------|
------------------------------------------------------|
R
------------------------------------------------------|
------------------------------------8--11-------------|
----------------5---------9------------X--------------|
-*-*-*-7--*-*-*----*-*-*-----*-*-*----/8--------------|
-5-5-5----5-5-5----5-5-5-----5-5-5--------------------|
------------------------------------------------------|

3:07
L
-----------------------------------------------------|
-----------------------------------------------------|
-/21-17----/19-14----/17-12----/14-10---9-10-9----9--|
-----------------------------------------------12----|
-----------------------------------------------------|
-----------------------------------------------------|
R
---------------------------------------------------------|
---------------------------------------------------------|
---------------------------------------------------------|
-*-*-*-0--*-*-*--2--*-*-*--3--*-*-*-5----7-8-7-5-7-------|
-1-1-1----1-1-1-----1-1-1-----1-1-1----------------------|
---------------------------------------------------------|


3:11
L
------------------------------------------------------|
-----10--------13--------17------20-----17-18-17-15---|
----------10--------14--------17----17----------------|
-7----------------------------------------------------|
------------------------------------------------------|
------------------------------------------------------|
R
---------------------------------------------------------|
---------------------------------------------------------|
---------------------------------------------------------|
-*-*-*-0--*-*-*--2--*-*-*--3--*-*-*-5----7-8-7-5-7-------|
-1-1-1----1-1-1-----1-1-1-----1-1-1----------------------|
---------------------------------------------------------|

3:16
L
---------------------------------------------------------------|
------------------------------/\-------------------------------|
-17--17/19---15--15/17--14--121412-10-12-14-10-12-10-9-10-9----|
---------------------------------------------------------------|
---------------------------------------------------------------|
---------------------------------------------------------------|
R
---------------------------------------------------------|
---------------------------------------------------------|
---------------------------------------------------------|
-*-*-*-0--*-*-*--2--*-*-*--3--*-*-*-5----7-8-7-5-7-------|
-1-1-1----1-1-1-----1-1-1-----1-1-1----------------------|
---------------------------------------------------------|

3:20
L
---------------------------------------------------------|
-------------------------------------/131313-101010------|
-----------101010-------141414-101010--------------------|
121212-888--------121212---------------------------------|
---------------------------------------------------------|
---------------------------------------------------------|

---------------------------------------------------------------------|
---------------------------------------------------------------------|
---------------------------------------------------------------------|
141414-101010--------151515-141414-101010-------101010-121212-151515-|
--------------121512----------------------121212---------------------|
---------------------------------------------------------------------|
R
------------------------------------------------------------------|
------------------------------------------------------------------|
------------------------------------------------------------------|
------------------------------------------------------------------|
-*-*-*-1-*-*-*-3-*-*-*-5-*-*-*-7-*-*-*-5-*-*-*-7-*-*-*-8-*-*-*-10-|
-5-5-5---5-5-5---5-5-5---5-5-5---8-8-8---8-8-8---8-8-8---8-8-8----|


3:27
B
---------------------------------------------------------|
---------------------------------------------------------|
---------------------------------------------------------|
---------------------------10-8-7-8-7----7---------------|
-*-*-*-*-7--*-*-*-*-8--*-*------------10---10-8-10-8-7---|
10101010---10101010---1010-------------------------------|



L
---------------------------------------------------|
---------_---------------_-------------------------|
--------/ \---T---------/ \---T---^---T---^---T----|
---_---0-8-12-15---_---0-8-12-15-8-12-17-8-12-19---|
--/ \-------------/ \------------------------------|
-0-8-12----------0-8-12----------------------------|
R
---------------------------------------------------|
---------------------------------------------------|
---------_----------------_------------------------|
---_----/ \---T----_-----/ \---T---^---T---^----T--|
--/ \--0-8-12-17--/ \---0-8-12-17-8-12-19-8-12-20--|
-0-8-12----------0-8-12----------------------------|


L
---------------------------------------------------|
---------_---------------_-------------------------|
--------/ \---T---------/ \---T---^---T---^---T----|
---_---0-8-12-15---_---0-8-12-15-8-12-17-8-12-24---|
--/ \-------------/ \------------------------------|
-0-8-12----------0-8-12----------------------------|
R
---------------------------------------------------|
---------------------------------------------------|
---------_----------------_------------------------|
---_----/ \---T----_-----/ \---T---^---T---^----T--|
--/ \--0-8-12-17--/ \---0-8-12-17-8-12-15-8-12-24--|
-0-8-12----------0-8-12----------------------------|

L
----------------------------------------------|
--------_--------------_----------------------|
-------/ \--T---------/ \--T---^--T---^--T----|
--_---0-5-8-11---_---0-5-8-11-5-8-12-5-8-11---|
-/ \------------/ \---------------------------|
0-5-8----------0-5-8--------------------------|
R
-----------------------------------------------|
-----------------------------------------------|
--------_---------------_----------------------|
--_----/ \--T-----_----/ \--T---^--T---^--T----|
-/ \--0-5-8-12---/ \--0-5-8-12-5-8-13-5-8-12---|
0-5-8-----------0-5-8--------------------------|



-------------------------------------------------------|
---------_---------------------------------------------|
--------/ \--T--^--T---^--T---^--T---^--T--^--T---^----|
---_---0-3-7-8-3-7-10-3-7-12-3-7-10-3-7-8-3-7-10-3-7---|
--/ \--------------------------------------------------|
-0-3-7-------------------------------------------------|
R
-------------------------------------------------------|
-------------------------------------------------------|
---------_---------------------------------------------|
---_----/ \--T---^--T---^--T---^--T---^--T---^--T---^--|
--/ \--0-3-7-10-3-7-12-3-7-13-3-7-12-3-7-10-3-7-12-3-7-|
-0-3-7-------------------------------------------------|


L
---------------------------------------------------|
---------_---------------_-------------------------|
--------/ \---T---------/ \---T---^---T---^---T----|
---_---0-8-12-15---_---0-8-12-15-8-12-17-8-12-19---|
--/ \-------------/ \------------------------------|
-0-8-12----------0-8-12----------------------------|
R
---------------------------------------------------|
---------------------------------------------------|
---------_----------------_------------------------|
---_----/ \---T----_-----/ \---T---^---T---^----T--|
--/ \--0-8-12-17--/ \---0-8-12-17-8-12-19-8-12-20--|
-0-8-12----------0-8-12----------------------------|


L
---------------------------------------------------|
---------_---------------_-------------------------|
--------/ \---T---------/ \---T---^---T---^---T----|
---_---0-8-12-15---_---0-8-12-15-8-12-17-8-12-19---|
--/ \-------------/ \------------------------------|
-0-8-12----------0-8-12----------------------------|
R
---------------------------------------------------|
---------------------------------------------------|
---------_----------------_------------------------|
---_----/ \---T----_-----/ \---T---^---T---^----T--|
--/ \--0-8-12-17--/ \---0-8-12-17-8-12-15-8-12-17--|
-0-8-12----------0-8-12----------------------------|

L
----------------------------------------------|
--------_--------------_----------------------|
-------/ \--T---------/ \--T---^--T---^--T----|
--_---0-5-8-11---_---0-5-8-11-5-8-12-5-8-11---|
-/ \------------/ \---------------------------|
0-5-8----------0-5-8--------------------------|
R
-----------------------------------------------|
-----------------------------------------------|
--------_---------------_----------------------|
--_----/ \--T-----_----/ \--T---^--T---^--T----|
-/ \--0-5-8-12---/ \--0-5-8-12-5-8-13-5-8-12---|
0-5-8-----------0-5-8--------------------------|


L
--------------------------------------------------|
---------_----------------------------------------|
--------/ \--T--^--T---^--T---^--T---^--T---------|
---_---0-3-7-8-3-7-10-3-7-12-3-7-10-3-7-/10\------|
--/ \---------------------------------------------|
-0-3-7--------------------------------------------|
R
-------------------------------------------------|
-------------------------------------------------|
---------_---------------------------------------|
---_----/ \--T---^--T---^--T---^--T---^----------|
--/ \--0-3-7-10-3-7-12-3-7-13-3-7-12-3-7--/12\---|
-0-3-7-------------------------------------------|

3:48
B
------------------------------------------------------------------|
------------------------------------------------------------------|
------------------------------------------------------------------|
------------------------------------------------------------------|
-***------***-*-*-*-***----******---***-*-*-*-******-*-*-*-***----|
-000-0|---000-0-0-0-000-0|-000000---000-0-0-0-000000-0-0-0-000-0|-|

-------------------------------------------------------|
-------------------------------------------------------|
-------------------------------------------------------|
-------------------------------------------------------|
-***------***-*-*-*-***-----***-8---***-*-*-*-***-7----|
-000-0|---000-0-0-0-000-0|--888-8|--888-5-5-5-777-7\---|

B
------------------------------------------------------------------|
------------------------------------------------------------------|
------------------------------------------------------------------|
------------------------------------------------------------------|
-***------***-*-*-*-***----******---***-*-*-*-******-*-*-*-***----|
-000-0|---000-0-0-0-000-0|-000000---000-0-0-0-000000-0-0-0-000-0|-|

-------------------------------------------------------|
-------------------------------------------------------|
-------------------------------------------------------|
----------------------------------------------***------|
-***------***-*-*-*-***-----***-8---***-*-*-*-444-4----|
-000-0|---000-0-0-0-000-0|--888-8|--888-5-5-5-777-7----|

4:09
L
----------------------------------------------------------------|
----------------------------------------------------------------|
----------------------------------------------------------------|
----*-------^--10-8-7-*-*--*---------*-------^--10-8-7-*-*--*---|
*--*8-12--10-12-------7-8-10-12-*---*8-12--10-12-------7-8-10-12|
8-12-----------------------------8-12---------------------------|

R
--------------------------------------------------------------|
--------------------------------------------------------------|
--------------------------------------------------------------|
***-*-------***-*-*-*-***-*------***-*-------***-*-*-*-***-*--|
000-0-------000-0-0-0-000-0------000-0-------000-0-0-0-000-0--|
000-0-------000-0-0-0-000-0------000-0-------000-0-0-0-000-0--|


L
----------------------------------------------------------|
----------------------------------------------------------|
----------------------------------------------------------|
----*--------5-----*-*-*-7---------*------^---7------10---|
*-*-5-8--7-8---8-7-5-7-8------*--*-7-10--8-10---10-8------|
5-8---------------------------7-10------------------------|

----------------------------------------------------------|
----------------------------------------------------------|
----------------------------------------------------------|
***-*--------***-*-*-*-***-*--***-*---***-*-*-*-----------|
888-8--------888-8-8-8-888-8--555-5---555-7-7-7-7---------|
888-8--------888-8-8-8-888-8--555-5---555-7-7-7-7|--------|
Добавлено: 05.07.2013
Другие материалы по этой песне:
  • Аккорды и текст

Страница создана 05.07.2013
http://primanota.ru/conducting-from-the-grave/we-who-shall-conquer-chords.htm
Привет, Гость.
Предлагаем пройти революционный курс по гитаре.
Подарок от PrimaNota.Ru, забирай!