PrimaNota.ru - самый крупный в мире бесплатный архив песенных текстов, аккордов, табулатур и нот


Conducting From The Grave - Unholiest Of Nightmares - таба, видео

Регистрация Запомнить меня
Войти через:  Facebook Google Twitter Vk Yandex Mail.ru

Conducting From The Grave - Unholiest Of Nightmares - таба, видео

Печатать
Просмотров: 128
CONDUCTING FROM THE GRAVE

UNHOLIEST OF NIGHTMARES 
CGCFAD

GT.1=LEFT SIDE
GT.2=RIGHT SIDE
'*'=PALM MUTE


0:00                                   0:02
-------------------------_-----------------|
---_-----------_--------/ \-------7-*-*-*--|
--/ \-----^---/ \------4-5-4-*-*----4-5-4--|
-1-2-1---1-2-4-5-4--^--------5-4-----------|
-------3-----------6-7---------------------|
-------------------------------------------|

GT.1
0:02                           0:04

-7-*-7-*-8-*-7-*--------------------|
---4---4---4---4-5------------------|
-------------------4----------------|
---------------------5---5---5-8----|
-----------------------7---7--------|
------------------------------------|
GT.2
-----------------7------------------|
-------------------8-----8-*-8-11---|
---------------------7-----9--------|
-9-*-9-*-10*-9-*-------9------------|
---7---7---7---7--------------------|
------------------------------------|

0:05                                                         0:09

------------------------------------------------------------------|
------------------------------------------------------------------|
------------------------------------------------------------------|
-2-----2---2---2-1-*-1-*-4-*-4-5-2-----2---2---2---------1---1-4--|
---*-*---*---*-----3---3---6-------*-*---*---*---*-3--------------|
---2-2---2---2---------------------2-2---2---2---1---1-4---4------|

0:09-                                                            0:14

-----------------------------------all notes tremelo picked----------|
---------------------------------[---------------------------------]-|
---------------------------------[-----------------5-4-5-4-7-4-5-7-]-|
-2-----2---2---2-1-*-1-*-4-*-4-7--5-4-5-4-7-4-5-4--------------------|
---*-*---*---*-----3---3---6-----------------------------------------|
---2-2---2---2-------------------------------------------------------|

0:14                                                          0:18

------------------------------------------------------------------|
------------------------------------------------------------------|
------------------------------------------------------------------|
-2-----2---2---2-1-*-1-*-4-*-4-5-2-----2---2---2---------1---1-4--|
---*-*---*---*-----3---3---6-------*-*---*---*---*-3--------------|
---2-2---2---2---------------------2-2---2---2---1---1-4---4------|

0:18

-----------------------------------all notes tremelo picked---------|
---------------------------------[--------------------------------]-|
---------------------------------[-----------------5-4-7-5-4------]-|
-2-----2---2---2-1-*-1-*-4-*-4-7--5-4-5-4-7-4-5-4------------7-5-4--|
---*-*---*---*-----3---3---6----------------------------------------|
---2-2---2---2------------------------------------------------------|

                              0:24

---------------------------------|
----------------------------PH---|
-4-*-4-*-5-*-4-*-8-*-8-*-9-*-8\--|
---------------------------------|
---6---6---6---6---9---9---9-----|
---------------------------------|

0:24                                                         0:28

------------------------------------------------------------------|
------------------------------------------------------------------|
------------------------------------------------------------------|
-2-----2---2---2-1-*-1-*-4-*-4-5-2-----2---2---2---------1---1-4--|
---*-*---*---*-----3---3---6-------*-*---*---*---*-3--------------|
---2-2---2---2---------------------2-2---2---2---1---1-4---4------|


0:28                                                             0:33
GT.1
-----------------------------------all notes tremelo picked----------|
---------------------------------[---------------------------------]-|
---------------------------------[-----------------5-4-5-4-7-4-5-7-]-|
-2-----2---2---2-1-*-1-*-4-*-4-7--5-4-5-4-7-4-5-4--------------------|
---*-*---*---*-----3---3---6-----------------------------------------|
---2-2---2---2-------------------------------------------------------|

GT.2
-----------------------------------all notes tremelo picked----------|
---------------------------------[----------------5-4-5-4-7-4-5-7--]-|
---------------------------------[---------------------------------]-|
-2-----2---2---2-1-*-1-*-4-*-4-7--5-4-5-4-7-4-5-4--------------------|
---*-*---*---*-----3---3---6-----------------------------------------|
---2-2---2---2-------------------------------------------------------|

0:33                                                                            0:40
GT.1
---------_--------------_----------------_-------------------------------------------|
--------/ \------------/ \--------------/ \-----------/\-----------------------------|
-9--9--9-1112--11-11-11-1214--12--12--12-119--11-11-119-7------------------_---------|
-x--x--x-x--x--x--x--x--x--x---x---x---x-x-x--x--x--x-x-x--5-5-5-4-2-7-7--/ \--------|
-7--7--7/9/10--9--9--9/10/12--10--10--10\9\7--9--9--9\7\5--3-3-3\2-0-5-5-5-3-2-5-7\--|
-------------------------------------------------------------------------------------|
  
GT.2     _             _
-3------/ \-----------/ \---------------------^-------------------------------------|
----5--5-7-8-7-------5-7-8---------------12-12-10-8---------------------------------|
----4-----------7----------9--7--5--4--4--x--x--x-x---------------7-5---------------|
---------------------------X--X--X--X--X-/9--9-\7-5-9-5-7-5-9-7-5-----9-7-9-7-5-----|
---------------------------7--5--3--2--2----------------------------------------9-7\|
------------------------------------------------------------------------------------|

0:40                  0:42
GT.1
---------------------------------|
------------------------_--------|
-----------------------/ \-------|
----------------------5\4/5------|
-****************-*-*------------|
-2222222222222222-2-2------------|

GT.2
---------------------------------|
----------------------12-10-12---|
-----------------------x--x--x---|
----------------------9-\7/-9----|
-****************-*-*------------|
-2222222222222222-2-2------------|

0:42                                                                          0:48  
GT.1
---------_--------------_----------------_------------------------------------------|
--------/ \------------/ \--------------/ \-----------/\----------------------------|
-9--9--9-1112--11-11-11-1214--12--12--12-119--11-11-119-7------------------_--------|
-x--x--x-x--x--x--x--x--x--x---x---x---x-x-x--x--x--x-x-x--5-5-5-4-2-7-7--/ \--4----|
-7--7--7/9/10--9--9--9/10/12--10--10--10\9\7--9--9--9\7\5--3-3-3\2-0-5-5-5-3-2------|
------------------------------------------------------------------------------------|

GT.2     _             _
-3------/ \-----------/ \---/10--8--7-----7-------^------------------------------------|
----5--5-7-8-7-------5-7-8-------------10---10---8-7----------------------------__-----|
----4-----------7------------------------------------7------7--9---------9-----/  \----|
--------------------------------------------------------10-------10/12-------12-10-12--|
---------------------------------------------------------------------------------------|
---------------------------------------------------------------------------------------|

0:49                               0:51  

------------------------------------------|
------------------------------------------|
-----------------------*-*-*-*-*-*-*-*----|
-----------------------5-5-5-5-7-7-7-7----|
-**---**---*---**---*--3-3-3-3-5-5-5-5----|
-00-0-00-0-0-0-00-0-0---------------------|


0:51                                                     0:55

-------------------------------------------------------------|
----------------------------------------_--------------_-----|
--------------------------_------------/ \--~---------/ \----|
-----------_-------------/ \--~-***-*-2-4-5-4-***-*--4-5-7---|
---***-*--/ \--~--***-*-2-3-5-3-333-3---------555-5----------|
-2-222-2-2-4-5-4--000-0--------------------------------------|

0:55                                                   1:00  
-----------------------------------------------------------|
-----------------------------------------------------------|
-----------------------------------------------------------|
-----------_----------------2-1-***-*-1-*-*-4-***-*-4-*-4--|
---***-*--/ \--~--***-*-2-3-----333-3---3-3---666-6---6----|
-2-222-2-4-5-7-5--111-1------------------------------------|

1:00                                                    1:04   
-------------------------------------------------------------|
----------------------------------------_--------------_-----|
--------------------------_------------/ \--~---------/ \----|
-----------_-------------/ \--~-***-*-2-4-5-4-***-*--4-5-7---|
---***-*--/ \--~--***-*-2-3-5-3-333-3---------555-5----------|
-2-222-2-2-4-5-4--000-0--------------------------------------|

1:04                                                 1:08  
-----------------------------------------------------------|
-----------------------------------------------------------|
----------------------------------------------------4-4-4-4|
-----------_----------------2-1-***-*-1-*-*-4-*-*-*-4-4-4-4|
---***-*--/ \--~--***-*-2-3-----333-3---3-3---6-6-6-6-6-6-6|
-2-222-2-4-5-7-5--111-1------------------------------------|

1:08                                 1:11
GT.1
-------------------------_------------------|
---_-----------_--------/ \-------7-*-*-*---|
--/ \-----^---/ \------4-5-4-*-*----4-5-4---|
-1-2-1---1-2-4-5-4--^--------5-4------------|
-------3-----------6-7----------------------|
--------------------------------------------|

1:11                              1:13
GT.1
-7-*-7-*-8-*-7-*--11-8-7--------------|
---4---4---4---4---------10-8-7-PH----|
--------------------------------8-\---|
--------------------------------------|
--------------------------------------|
--------------------------------------|

GT.2
--------------------------------------------------|
----------------------------------------------PH--|
----------------------------------8-*-8-*-9-*-8-\-|
-9-*-9-*-10*-9-*-9-*-9-*-10-*-9-*-----------------|
---7---7---7---7---6---6----6---6---9---9---9-----|
--------------------------------------------------|

RIFFS 0:05-0:48 REPEATS 1:14-1:57


1:57                                                      2:01 
--------------------------------------------------------------|
--------------------------------------------------------------|
-----------------------*-*-*-*-*-*-*-*--------------*-*-*-*---|
-----------------------5-5-5-5-7-7-7-7--------------5-5-5-5-7-|
-**---**---*---**---*--3-3-3-3-5-5-5-5-**---**---**-3-3-3-3-5-|
-00-0-00-0-0-0-00-0-0------------------00-0-00-0-00-----------|


2:02                                                                            2:09   
-------------------------------------------------------------------------------------|
-------------------------------------------------------------------------------------|
-------------------------------------------------------------------------------------|
-----------------------------***-*-4------------------------------------***-*-1------|
--***------2-***-*---***-*-5-333-3--***-------***-----2-***-*---***-*-5-333-3---***-*|
5-222-2|-----222-2-4-000-0----------111-1|--5-222-2|----222-2-4-000-0-----------444-4|

2:09-------------2:11
GT.1
--------------------------|
--------------------------|
--------------------------|
--------------------------|
*--*--*-*-*---*-*-*-*-----|
4--4--4-4-4---4-4-4-4-----|

GT.2
--------------------------|
--------------------------|
---------------5-4--------|
4------7-4---------7-5----|
--6--------6--------------|
--------------------------|

2:11                                                                       2:18
--------------------------------------------------------------------------------|
--------------------------------------------------------------------------------|
--------------------------------------------------------------------------------|
-----------------------------***-*-4------------------------------------***-*-1-|
--***------2-***-*---***-*-5-333-3--***-------***-----2-***-*---***-*-5-333-3---|
5-222-2|-----222-2-4-000-0----------111-1|--5-222-2|----222-2-4-000-0-----------|

2:18                                                                              2:26
GT.1                                                                           
----------------------------------------------------------------------------------------|
----------------------------------------------------------------------------------------|
----------------------------------------------------------------------------------4--2--|
------*-*--*-*-*--*-*-*-*-1-------*--*------2--------*--*------4------*--*--------5--4--|
***-*-1-1--4-4-4--4-4-4-4-2-------2--2------3--------3--3------5------5--5--------------|
444-4-4-4--7-7-7--7-7-7-7---------------------------------------------------------------|

GT.2
------------------------------------------------------------------------------_-----------|
------------------------------------------------------------__---------__----/ \----------|
----------------------------------------__----------__-----/  \-------/  \--7-9-11-/16-14~|
------*-*--*-*-*--*-*-*-*--------__----/  \--------/  \---9-10-12-9~-9-10-12--------------|
***-*-4-4--7-7-7--7-7-7-7-6~----/  \--9-10-12-10~-9-10-12---------------------------------|
444-4-4-4--7-7-7--7-7-7-7-----9-10-12-----------------------------------------------------|

2:26                                                                       2:36
RYTHM
--------------------------------------------------------------------------------|
--------------------------------------------------------------------------------|
-4-4-4-4--2--4-4-4-4--2---------------------------------7-7-7-7--6--7-7-7-7--6--|
-5-5-5-5|-4--5-5-5-5|-4---9--9--9--9--7--7--9--9--9-10--9-9-9-9|-7--9-9-9-9|-7--|
-------------------------10-10-10-10|-9--9-10-10-10-12--------------------------|
--------------------------7--7--7--7--6--6--7--7--7--9--------------------------|

SOLO
---------------------------------------------------------------------------------|
---------------------------------------------------------------------------------|
/17-16-14-16-/17-16-14/16-14-12-------11-12-11--11-12-14/17-16-14-16-/17-16-14-16|
----------------------------------------------12---------------------------------|
---------------------------------------------------------------------------------|
---------------------------------------------------------------------------------|

2:36                                                                      2:47
RYTHM
-------------------------------------------------------------------------------|
-------------------------------------------------------------------------------|
---7------7-----6------6----5-5-5-5--4--5-5-5-5--7---9--9--9--9--9-9-9-9-------|
-----9---9-9------7---7-7---7-7-7-7|-5--7-7-7-7--9--10-10-10-10--7-7-7-7-------|
-----------------------------------------------------------------7-7-7-7-------|
-5-----5------4-----4----------------------------------------------------------|

SOLO
--------------------------------------------__--------------------------__-------|
-------------------------------------------/  \------------------------/  \------|
-17--19------17-----------16--17--16-----16-17-16---16---14--16--14--17-16-14----|
------------------------------------(17)---------17---------------------------16-|
---------------------------------------------------------------------------------|
---------------------------------------------------------------------------------|

RYTHM 2:26-2:47 REPEATS AGAIN 2:47-3:07

2:43                                                                  2:52
SOLO
----------------------------------------------------------------------------|
----------------------------------------------------------------------------|
-14-16--12----12/14--11----11-12-14-12-11-/17-16-14-16---/17-16-14-16-14-12-|
------------------------12--------------------------------------------------|
----------------------------------------------------------------------------|
----------------------------------------------------------------------------|

2:52                                                                   3:00  
----------------------------------------------------------------------------|
----------------------------------------------------------------------------|
11-12-11----11-12-14-/17-16-14-16---/17-16-14-16-17/-19------17-------------|
---------12-----------------------------------------------------------------|
----------------------------------------------------------------------------|
----------------------------------------------------------------------------|

3:00                                                                  3:05
-------------------__--------------------------__----------------------------|
------------------/  \------------------------/  \---------------------------|
-16--17--16-----16-17-16---16---14--16--14--17-16-14----14-16--12----12/14---|
-----------(17)---------17---------------------------16----------------------|
-----------------------------------------------------------------------------|
-----------------------------------------------------------------------------|

3:05                  3:07
-----------------------------------------------------|
-----------------------------------------------------|
-11-----11-12-11------^------------------------------|
----12-----------12-12/14~---------------------------|
-----------------------------------------------------|
-----------------------------------------------------|

3:07                                         3:11
BOTH EXCEPT - GT.1 THE LAST NOTES OF RAKES ARE
15 INSTEAD OF 19 ON 1ST LINE AND 14 INSTEAD OF 18 ON 2ND
------------19---------------------19----------------|
---------19----19-15------------19----19-15----------|
--------16-----------16--------16-----------16-------|
-------14---------------------14---------------------|
----14---------------------14------------------------|
-14---------------------14---------------------------|

3:11                                             3:15
------------18---------------------18-----------------|
---------18----18-14------------18----18-14-----------|
--------15-----------15--------15-----------15--------|
-------13---------------------13----------------------|
----13---------------------13-------------------------|
-13---------------------13----------------------------|

3:15                                             3:18
------------19---------------------19----------------|
---------19----19-15------------19----19-15----------|
--------16-----------16--------16-----------16-------|
-------14---------------------14---------------------|
----14---------------------14------------------------|
-14---------------------14---------------------------|

3:18                                              3:21
------------18---------------------18-----------------|
---------18----18-14------------18----18-14-----------|
--------15-----------15--------15-----------15--------|
-------13---------------------13----------------------|
----13---------------------13-------------------------|
-13---------------------13----------------------------|

3:22                                                             3:26

-14--14--14--14--14-14-14-14-14-14-14--14--14--14--14-14-14-14-14-14-|
-15--15--15--15--15-15-15-15-15-15-15--15--15--15--15-15-15-15-15-15-|
-16--16--16--16--16-16-16-16-16-16-16--16--16--16--16-16-16-16-16-16-|
---------------------------------------------------------------------|
---------------------------------------------------------------------|
---------------------------------------------------------------------|

3:26                                                              3:30
                                                               
-13--13--13--13--13-13-13-13-13-13--13--13--13--13--13-13-13-13-13-13-|
-14--14--14--14--14-14-14-14-14-14--14--14--14--14--14-14-14-14-14-14-|
-15--15--15--15--15-15-15-15-15-15--15--15--15--15--15-15-15-15-15-15-|
----------------------------------------------------------------------|
----------------------------------------------------------------------|
----------------------------------------------------------------------|

3:30                                                              3:33

-14--14--14--14--14-14-14-14-14-14-14--14--14--14--14-14-14-14-14-14-|
-15--15--15--15--15-15-15-15-15-15-15--15--15--15--15-15-15-15-15-15-|
-16--16--16--16--16-16-16-16-16-16-16--16--16--16--16-16-16-16-16-16-|
---------------------------------------------------------------------|
---------------------------------------------------------------------|
---------------------------------------------------------------------|

3:33                                                                      3:37

-13--13--13--13--13-13-13-13-13-13--13--13-13-13--13-13-13--13-13-13-13-13-13-|
-14--14--14--14--14-14-14-14-14-14--14--14-14-14--14-14-14--14-14-14-14-14-14-|
-15--15--15--15--15-15-15-15-15-15--15--15-15-15--15-15-15--15-15-15-15-15-15-|
------------------------------------------------------------------------------|
------------------------------------------------------------------------------|
------------------------------------------------------------------------------|

3:40                                              3:43

------------------------------------------------------|
------------------------------------------------------|
------------------------------------------------------|
---*-*-*---*-*-*------*-*-*---*-*-*------*-*-*---*-*-*|
-0-------3-------0|-0-------3-------0|-0-------3------|
---2-1-2---2-1-2------2-1-2---2-1-2------2-1-2---2-1-2|

3:43                                              3:46

----------------------------------------------------------|
----------------------------------------------------------|
----------------------------------------------------------|
---*-*-*---*-*-*------*-*-*---*-*-*------*-*-*---*-*-*----|
-3-------6-------3|-3-------6-------3|-3-------6----------|
---5-3-5---5-3-5------5-3-5---5-3-5------5-3-5---5-3-5----|

3:46                                              3:49

------------------------------------------------------|
------------------------------------------------------|
------------------------------------------------------|
---*-*-*---*-*-*------*-*-*---*-*-*------*-*-*---*-*--|
-0-------3-------0|-0-------3-------0|-0-------3------|
---2-1-2---2-1-2------2-1-2---2-1-2------2-1-2---2-1-2|

3:50-                                    3:53

------------------------------------|R SIDE-|L SIDE--|
------------------------------------|-------|--------|
------------------------------------|-------|----*-*-|
---*-*-*---*-*-*------*-*-*---*-*-*-|*-*-*-*|*-*-3-2-|
-3-------6-------3|-3-------6-------|5-4-2-1|2-1-3-2-|
---5-3-5---5-3-5------5-3-5---5-3-5-|5-4-2-1|2-1-----|

3:53                                              3:56

------------------------------------------------------|
------------------------------------------------------|
------------------------------------------------------|
---*-*-*---*-*-*------*-*-*---*-*-*------*-*-*---*-*-*|
-0-------3-------0|-0-------3-------0|-0-------3------|
---2-1-2---2-1-2------2-1-2---2-1-2------2-1-2---2-1-2|

3:56                                                  3:59

----------------------------------------------------------|
----------------------------------------------------------|
----------------------------------------------------------|
---*-*-*---*-*-*------*-*-*---*-*-*------*-*-*---*-*-*----|
-3-------6-------3|-3-------6-------3|-3-------6----------|
---5-3-5---5-3-5------5-3-5---5-3-5------5-3-5---5-3-5----|

4:00                                              4:03

------------------------------------------------------|
------------------------------------------------------|
------------------------------------------------------|
---*-*-*---*-*-*------*-*-*---*-*-*------*-*-*---*-*--|
-0-------3-------0|-0-------3-------0|-0-------3------|
---2-1-2---2-1-2------2-1-2---2-1-2------2-1-2---2-1-2|

4:04                                            4:09

----------------------------------------------------|
----------------------------------------------------|
----------------------------------------------------|
---*-*-*---*-*-*------*-*-*---*-*-*-*-*-*-*-*-*-*-*-|
-3-------6-------3|-3-------6-------2-1-3-2-4-3-2-1-|
---5-3-5---5-3-5------5-3-5---5-3-5-2-1-3-2-4-3-2-1-|

4:09                                                   4:14 

-------------------------------------------------------------|
-------------------------------------------------------------|
-------------------------------------------------------------|
-------------------------------------------------------------|
************-----************-----************************---|
2222222222222|---2222222222222|---2222222222221111111111111|-|

4:14                                                   4:19
------------------------------------------------------------|
------------------------------------------------------------|
------------------------------------------------------------|
------------------------------------------------------------|
************----************************-----************---|
1111111111111|--1111111111112222222222222|---2222222222222|-|

4:19                                                  END
-----------------------------------------------------------|
-----------------------------------------------------------|
-----------------------------------------------------------|
----------------------------------------------*-*-*-*-*-*--|
************-----************-----************3-2-1-3-2-0--|
2222222222222|---1111111111111|---1111111111113-2-1-3-2-0--|

Добавлено: 06.04.2012
Другие материалы по этой песне:
  • Аккорды и текст

Страница создана 06.04.2012
http://primanota.ru/conducting-from-the-grave/unholiest-of-nightmares-chords.htm
Привет, Гость.
Предлагаем пройти революционный курс по гитаре.
Подарок от PrimaNota.Ru, забирай!