PrimaNota.ru - самый крупный в мире бесплатный архив песенных текстов, аккордов, табулатур и нот


Conducting From The Grave - The Tyrants Throne - таба, видео

Регистрация Запомнить меня
Войти через:  Facebook Google Twitter Vk Yandex Mail.ru

Conducting From The Grave - The Tyrants Throne - таба, видео

Печатать
Просмотров: 105
CONDUCTING FROM THE GRAVE
THE TYRANT'S THRONE
TABBED BY andherembrace
C-G-C-F-A-D

*=PALM MUTE


0:00  (FOR 1ST RIFF USE INDEX FOR 6TH STRING AND MIDDLE FOR 5TH 
       REMEMBERING TO MUTE STRING DIRECTLY AFTER SKIPPING TO THE NEXT     0:04
BOTH
--------------------------------------------------------------------------------|
--------------------------------------------------------------------------------|
--------------------------------------------------------------------------------|
--------------------------------------------------------------------------------|
-1-----------1-----------1-------0-------1-----------1-----------1-------4---0--|
---1-1-1-1-1---1-1-1-1-1---1-1-1-0---------1-1-1-1-1---1-1-1-1-1---1-1-1-4---0--|

0:04                                                                                 0:09
BOTH
-----------------------------------------------------------------------------------------|
-----------------------------------------------------------------------------------------|
-----------------------------------------------------------------------------------------|
-----------------------------------------------------------------------------------*-*---|
-1-----------1-----------1-------0-------1-----------1-----------1-------4--0--7-2-5-4-2-|
---1-1-1-1-1---1-1-1-1-1---1-1-1-0---------1-1-1-1-1---1-1-1-1-1---1-1-1-4--0--7\2-5-4-2-|

0:10                                                               0:14
BOTH
------------------------------------------------------------------------|
------------------------------------------------------------------------|
--------------^----------------^---------------^------------------------|
-------4-----3-4------3---1---3-4-------4-----3-4------7/10------10/13--|
-*****---*-*-----***----*---*-----*****---*-*------*-*-------*-*--------|
-11111---1-1-----000----0---0-----11111---1-1------4-4-------7-7--------|

0:14                                                                0:18
BOTH
------------------------------------------------------------------------|
------------------------------------------------------------------------|
--------------^----------------^---------------^------------------------|
-------4-----3-4------3---1---3-4-------4-----3-4------7/10------10/13--|
-*****---*-*-----***----*---*-----*****---*-*------*-*-------*-*--------|
-11111---1-1-----000----0---0-----11111---1-1------4-4-------7-7--------|

0:19                                                                0:23
LEFT
------------------------------------------------------------------------|
--------------^--------------------------------^------------------------|
-------3-----2-3------5---3---5/6-------3-----2-3-----------------------|
-------------------------------------------------------7/10------10/13--|
-*****---*-*-----***----*---*-----*****---*-*------*-*-------*-*--------|
-11111---1-1-----000----0---0-----11111---1-1------4-4-------7-7--------|
RIGHT
------------------------------------------------------------------------|
------------------------------------------------------------------------|
--------------^----------------^---------------^------------------------|
-------4-----3-4------3---1---3-4-------4-----3-4------7/10------10/13--|
-*****---*-*-----***----*---*-----*****---*-*------*-*-------*-*--------|
-11111---1-1-----000----0---0-----11111---1-1------4-4-------7-7--------|

0:23                                                                0:28
LEFT
------------------------------------------------------------------------|
--------------^--------------------------------^------------------------|
-------3-----2-3------5---3---5/6-------3-----2-3-------PH)-------PH)---|
---------------------------------------------------------7--------10----|
-*****---*-*-----***----*---*-----*****---*-*------*-*-------*-*--------|
-11111---1-1-----000----0---0-----11111---1-1------4-4-------7-7--------|
RIGHT
------------------------------------------------------------------------|
------------------------------------------------------------------------|
--------------^----------------^---------------^--------PH)-------PH)---|
-------4-----3-4------3---1---3-4-------4-----3-4--------7--------10----|
-*****---*-*-----***----*---*-----*****---*-*------*-*-------*-*--------|
-11111---1-1-----000----0---0-----11111---1-1------4-4-------7-7--------|


0:28                                                            0:30
LEFT
--------------------------------------------------------------------|
--------------------------------------------------------------------|
---------------------------------8-8-8-8-8-8-8-8-1111111111111111---|
---------------------------------X-X-X-X-X-X-X-X--X-X-X-X-X-X-X-X---|
-1-----------1-----------1-------6-6-6-6-6-6-6-6--9-9-9-9-9-9-9-9---|
---1-1-1-1-1---1-1-1-1-1---1-1-1------------------------------------|
RIGHT
--------------------------------------------------------------------|
--------------------------------------------------------------------|
--------------------------------------------------------------------|
--------------------------------------------------------------------|
-1-----------1-----------1-------1----------------------------------|
---1-1-1-1-1---1-1-1-1-1---1-1-1---1-1-1-1-1-1-1--4-4-4-4-4-4-4-4---|

0:30                                                            0:32
LEFT
--------------------------------------------------------------------|
--------------------------------------------------------------------|
--------------------------------------------------------------------|
--------------------------------------------------------------------|
-1-----------1-----------1--------0-0-0-0-0-0-0-0--4-4-4-4-4-4-4-4--|
---1-1-1-1-1---1-1-1-1-1---1-1-1------------------------------------|
RIGHT
--------------------------------------------------------------------|
--------------------------------------------------------------------|
--------------------------------------------------------------------|
--------------------------------------------------------------------|
-1-----------1-----------1------------------------------------------|
---1-1-1-1-1---1-1-1-1-1---1-1-1--4-4-4-4-4-4-4-4--7-7-7-7-7-7-7-7--|

0:32                                                            0:35 
LEFT
--------------------------------------------------------------------|
--------------------------------------------------------------------|
---------------------------------8-8-8-8-8-8-8-8-1111111111111111---|
---------------------------------X-X-X-X-X-X-X-X--X-X-X-X-X-X-X-X---|
-1-----------1-----------1-------6-6-6-6-6-6-6-6--9-9-9-9-9-9-9-9---|
---1-1-1-1-1---1-1-1-1-1---1-1-1------------------------------------|
RIGHT
--------------------------------------------------------------------|
--------------------------------------------------------------------|
--------------------------------------------------------------------|
--------------------------------------------------------------------|
-1-----------1-----------1-------1----------------------------------|
---1-1-1-1-1---1-1-1-1-1---1-1-1---1-1-1-1-1-1-1--4-4-4-4-4-4-4-4---|

0:35                                                           0:37
LEFT
--------------------------------------------------------------------|
--------------------------------------------------------------------|
--------------------------------------------------------------------|
--------------------------------------------------------------------|
-1-----------1-----------1--------0-0-0-0-0-0-0-0--4-4-4-4-4-4-4-4--|
---1-1-1-1-1---1-1-1-1-1---1-1-1------------------------------------|
RIGHT
--------------------------------------------------------------------|
--------------------------------------------------------------------|
--------------------------------------------------------------------|
--------------------------------------------------------------------|
-1-----------1-----------1------------------------------------------|
---1-1-1-1-1---1-1-1-1-1---1-1-1--4-4-4-4-4-4-4-4--7-7-7-7-7-7-7-7--|

0:37                                                                       0:41
BOTH
--------------------------------------------------------------------------------|
--------------------------------------------------------------------------------|
--------------------------------------------------------------------------------|
--------------------------------------------------------------------------------|
-1-----------1-----------1-------0-------1-----------1-----------1-------4---0--|
---1-1-1-1-1---1-1-1-1-1---1-1-1-0---------1-1-1-1-1---1-1-1-1-1---1-1-1-4---0--|

0:41                                                                                0:47
BOTH
-----------------------------------------------------------------------------------------|
-----------------------------------------------------------------------------------------|
-----------------------------------------------------------------------------------------|
-----------------------------------------------------------------------------------*-*---|
-1-----------1-----------1-------0-------1-----------1-----------1-------4--0--7-2-5-4-2-|
---1-1-1-1-1---1-1-1-1-1---1-1-1-0---------1-1-1-1-1---1-1-1-1-1---1-1-1-4--0--7\2-5-4-2-|

0:47                                                           0:51
CLEAN SECT.
-----------0----------------0----------------2----------------2-------|
---------4---4------------4---4------------4---4------------4---4-----|
-------3-------3--------3-------3--------3-------3--------3-------3---|
-----1----------------1----------------1----------------1-------------|
---1----------------1----------------0----------------0---------------|
-1----------------1----------------0----------------0-----------------|

0:51                                                            0:56
-----------0----------------0----------------2----------------2-------|
---------4---4------------4---4------------4---4------------4---4-----|
-------3-------3--------3-------3--------3-------3--------3-------3---|
-----1----------------1----------------1----------------1-------------|
---1----------------1----------------0----------------0---------------|
-1----------------1----------------0----------------0-----------------|

0:56                                                     1:00
--------------------2--------2--------------------------------------|
------------4---------4--------4-----4-----------2-------2----------|
-----3--------3-----------3-----------------3------3-----3----------|
---4---4----------------------------------3---3------3---3----------|
-2---------------2------2--------2------1--------------1------------|
--------------------------------------------------------------------|


1:01                                                                          1:08
LEFT
-----------------------------------------------------------------------------------|
-------------------------------------------_---------------_---------------_-------|
-----------------------7--------6---------/ \-------------/ \-------------/ \------|
---------_-------------X--------X--------3-6-3-----------3-6-3-----------3-6-3-----|
--------/ \------*-*-*-5\-*-*-*-4\-----------------*-*-*----------*-*-*------------|
-1--1--2-5-2--1--1-1-1----1-1-1-----0--0--------0--0-0-0-------0--0-0-0---------0--|
RIGHT
-----------------------------------------------------------------------------------|
-----------------------------------------------------------------------------------|
-----------------------4--------3----------_---------------_---------------_-------|
---------_-------------X--------X---------/ \-------------/ \-------------/ \------|
--------/ \------*-*-*-2--*-*-*-1--------1-4-1-----*-*-*-1-4-1----*-*-*--1-4-1-----|
-1--1--2-5-2--1--1-1-1----1-1-1-----0--0--------0--0-0-0-------0--0-0-0---------0--|

1:09                                                                     1:16
LEFT
-----------------------------------------------------------------------------------|
-------------------------------------------_---------------_-----------------------|
-----------------------7--------6---------/ \-------------/ \----------------------|
---------_-------------X--------X--------3-6-3-----------3-6-3-------2-------------|
--------/ \------*-*-*-5\-*-*-*-4\-----------------*-*-*--------^--4---4-----------|
-1--1--2-5-2--1--1-1-1----1-1-1-----0--0--------0--0-0-0-------2-5-------5---------|
RIGHT
-----------------------------------------------------------------------------------|
-----------------------------------------------------------------------------------|
-----------------------4--------3----------_---------------_-----------------------|
---------_-------------X--------X---------/ \-------------/ \--------2-------------|
--------/ \------*-*-*-2--*-*-*-1--------1-4-1-----*-*-*-1-4-1--^--4---4-----------|
-1--1--2-5-2--1--1-1-1----1-1-1-----0--0--------0--0-0-0-------2-5-------5---------|

1:16                                                                           1:23
LEFT
-----------------------------------------------------------------------------------|
-------------------------------------------_---------------_---------------_-------|
-----------------------7--------6---------/ \-------------/ \-------------/ \------|
---------_-------------X--------X--------3-6-3-----------3-6-3-----------3-6-3-----|
--------/ \------*-*-*-5\-*-*-*-4\-----------------*-*-*----------*-*-*------------|
-1--1--2-5-2--1--1-1-1----1-1-1-----0--0--------0--0-0-0-------0--0-0-0---------0--|
RIGHT
-----------------------------------------------------------------------------------|
-----------------------------------------------------------------------------------|
-----------------------4--------3----------_---------------_---------------_-------|
---------_-------------X--------X---------/ \-------------/ \-------------/ \------|
--------/ \------*-*-*-2--*-*-*-1--------1-4-1-----*-*-*-1-4-1----*-*-*--1-4-1-----|
-1--1--2-5-2--1--1-1-1----1-1-1-----0--0--------0--0-0-0-------0--0-0-0---------0--|

1:24                                                                           1:30 
LEFT
-----------------------------------------------------------------------------------|
-------------------------------------------_---------------_-----------------------|
-----------------------7--------6---------/ \-------------/ \----------------------|
---------_-------------X--------X--------3-6-3-----------3-6-3-------2-------------|
--------/ \------*-*-*-5\-*-*-*-4\-----------------*-*-*--------^--4---4-----------|
-1--1--2-5-2--1--1-1-1----1-1-1-----0--0--------0--0-0-0-------2-5-------5---------|
RIGHT
-----------------------------------------------------------------------------------|
-----------------------------------------------------------------------------------|
-----------------------4--------3----------_---------------_-----------------------|
---------_-------------X--------X---------/ \-------------/ \--------2-------------|
--------/ \------*-*-*-2--*-*-*-1--------1-4-1-----*-*-*-1-4-1--^--4---4-----------|
-1--1--2-5-2--1--1-1-1----1-1-1-----0--0--------0--0-0-0-------2-5-------5---------|

1:30                                                                           1:38
LEFT
-----------------------------------------------------------------------------------|
-------------------------------------------_---------------_---------------_-------|
-----------------------7--------6---------/ \-------------/ \-------------/ \------|
---------_-------------X--------X--------3-6-3-----------3-6-3-----------3-6-3-----|
--------/ \------*-*-*-5\-*-*-*-4\-----------------*-*-*----------*-*-*------------|
-1--1--2-5-2--1--1-1-1----1-1-1-----0--0--------0--0-0-0-------0--0-0-0---------0--|
RIGHT
-----------------------------------------------------------------------------------|
-----------------------------------------------------------------------------------|
-----------------------4--------3----------_---------------_---------------_-------|
---------_-------------X--------X---------/ \-------------/ \-------------/ \------|
--------/ \------*-*-*-2--*-*-*-1--------1-4-1-----*-*-*-1-4-1----*-*-*--1-4-1-----|
-1--1--2-5-2--1--1-1-1----1-1-1-----0--0--------0--0-0-0-------0--0-0-0---------0--|

1:38                                                                           1:45 
LEFT
-----------------------------------------------------------------------------------|
-------------------------------------------_---------------_-----------------------|
-----------------------7--------6---------/ \-------------/ \----------------------|
---------_-------------X--------X--------3-6-3-----------3-6-3-------2-------------|
--------/ \------*-*-*-5\-*-*-*-4\-----------------*-*-*--------^--4---4-----------|
-1--1--2-5-2--1--1-1-1----1-1-1-----0--0--------0--0-0-0-------2-5-------5---------|
RIGHT
-----------------------------------------------------------------------------------|
-----------------------------------------------------------------------------------|
-----------------------4--------3----------_---------------_-----------------------|
---------_-------------X--------X---------/ \-------------/ \--------2-------------|
--------/ \------*-*-*-2--*-*-*-1--------1-4-1-----*-*-*-1-4-1--^--4---4-----------|
-1--1--2-5-2--1--1-1-1----1-1-1-----0--0--------0--0-0-0-------2-5-------5---------|

1:45                                                              1:52
LEFT
----------------------------------------------------------------------|
----------------------------------------------------------------------|
-------7--6-----------------------------------------------------------|
-9--8--------9--8-------------------------------------------8-8-8-----|
--------------------^-**--^-**--^-**--^-**---^-**---^-**--9-9-9-9-----|
-------------------9-666-9-666-8-555-8-555-12-999-12-999--8-8-8-8-----|
RIGHT
----------------------------------------------------------------------|
----------------------------------------------------------------------|
----------------------------------------------------------------------|
----------------------------------------------------------------------|
-6--5--9--8--6--5-----------------------------------------9-9-9-9-----|
-6--5--9--8--6--5-----------------------------------------8-8-8-8-----|

1:52                                                            1:54
LEFT
 ^       ^     ^        ^      ^            ^      ^     ^    ^   ^       
6-2---2-6-2--10-6---6-10-6--14-10------10-14-10--14-10\12-9\10-6\9-5\-|
---4-3-----------8-7-------------12--11-------------------------------|
----3-------------7----------------11---------------------------------|
----------------------------------------------------------------------|
----------------------------------------------------------------------|
----------------------------------------------------------------------|
RIGHT
-------------------------------------------------------------------|
-------------------------------------------------------------------|
-------------------------------------------------------------------|
-------------------------------------------------------------------|
-------------------------------------------------------------------|
6-6-6-6-6-6-6-6--5-5-5-5-5-5-5-5--9-9-9-9-9-9-9-9--8-8-8-8-8-8-8-8-|

1:55                                                              1:58
LEFT
 ^       ^     ^        ^      ^            ^      ^     ^    ^   ^       
6-2---2-6-2--10-6---6-10-6--14-10------10-14-10--14-10\12-9\10-6\9-5\-|
---4-3-----------8-7-------------12--11-------------------------------|
----3-------------7----------------11---------------------------------|
----------------------------------------------------------------------|
----------------------------------------------------------------------|
----------------------------------------------------------------------|
RIGHT
-------------------------------------------------------------------|
-------------------------------------------------------------------|
-------------------------------------------------------------------|
-------------------------------------------------------------------|
-------------------------------------------------------------------|
6-6-6-6-6-6-6-6--5-5-5-5-5-5-5-5--9-9-9-9-9-9-9-9--8-8-8-8-8-8-8-8-|

1:58                                                              2:01
LEFT
 ^       ^     ^        ^      ^            ^      ^     ^    ^   ^       
6-2---2-6-2--10-6---6-10-6--14-10------10-14-10--14-10\12-9\10-6\9-5\-|
---4-3-----------8-7-------------12--11-------------------------------|
----3-------------7----------------11---------------------------------|
----------------------------------------------------------------------|
----------------------------------------------------------------------|
----------------------------------------------------------------------|
RIGHT
-----------------------------------------------------------------------|
-----------------------------------------------------------------------|
-----------------------------------------------------------------------|
-----------------------------------------------------------------------|
-----------------------------------------------------------------------|
-6-6-6-6--5-5-5-5--9-9-9-9--8-8-8-8--6-6-6-6--5-5-5-5--9-9-9-9--8-8-8-8|

2:01                                                              2:04
LEFT
 ^       ^     ^        ^      ^            ^      ^     ^    ^   ^       
6-2---2-6-2--10-6---6-10-6--14-10------10-14-10--14-10\12-9\10-6\9-5\-|
---4-3-----------8-7-------------12--11-------------------------------|
----3-------------7----------------11---------------------------------|
----------------------------------------------------------------------|
----------------------------------------------------------------------|
----------------------------------------------------------------------|
RIGHT
-----------------------------------------------------------------------|
-----------------------------------------------------------------------|
-----------------------------------------------------------------------|
-----------------------------------------------------------------------|
-----------------------------------------------------------------------|
-6-6-6-6--5-5-5-5--9-9-9-9--8-8-8-8--6-6-6-6--5-5-5-5--9-9-9-9--8-8-8-8|

2:04,2:08                                                     2:06,2:09
LEFT
-6-6-6-6-2-2-2-2----------------10-10-10-10-6-6-6-6---------6-6-6-6-----|
-----------------4-4-4-4----------------------------8-8-8-8-------------|
-------------------------3-3-3-3----------------------------------------|
------------------------------------------------------------------------|
------------------------------------------------------------------------|
------------------------------------------------------------------------|
LEFT
2:06,2:09                                                                             2:08,2:11 

-14-14-14-14-10-10-10-10-------------------------18-18-18-18-14-14-14-14-------------------------|
-------------------------12-12-12-12-------------------------------------16-16-16-16-------------|
-------------------------------------11-11-11-11-------------------------------------15-15-15-15-|
-------------------------------------------------------------------------------------------------|
-------------------------------------------------------------------------------------------------|
-------------------------------------------------------------------------------------------------|
RIGHT
2:04                                                         |
-------------------------------------------------------------|
-------------------------------------------------------------|
-------------------------------------------------------------|
-------------------------------------------------------------|
-------------------------------------------------------------|
--^-**--^-**--^-**--^-**---^-**---^-**---^-**---^-**--^-**--^|
-9-666-9-666-8-555-8-555-12-999-12-999-11-888-11-888-9-666-9-|

                                      2:10
-------------------------------------------|
-------------------------------------------|
-------------------------------------------|
-------------------------------------------|
-------------------------------------------|
-**--^-**--^-**---^-**---^-**---^-**---^-**|
666-8-555-8-555-12-999-12-999-11-888-11-888|


2:11                                                                               2:16
RIGHT    
                               __                __              __                __
                              /  \              /  \            /  \              /  \
----------------------------11-15-11----------11-15-11--------10-14-10----------10-14-10-|
-------------------------13---------13------13--------------12--------12------12---------|
-----------------------12-------------12--12--------------11------------11--11-----------|
---------------------13-----------------13--------------12----------------12-------------|
-6--5--9--8--6--5------------------------------------------------------------------------|
-6--5--9--8--6--5------------------------------------------------------------------------|
LEFT
-----------------------------------------------------------------------------------------|
-----------------------------------------------------------------------------------------|
-------7--6------------------------------------------------------------------------------|
-9--8--------9--8------------------------------------------------------------------------|
--------------------2--------------------------------------1-----------------------------|
--------------------2--------------------------------------1-----------------------------|


2:16                                                                                             2:18
RIGHT       __               __               __               __                   __
           /  \             /  \             /  \             /  \                 /  \
---------14-18-14---------13-17-13---------12-16-12---------11-15-11-------------10-14-10------------|
-------16---------------15---------------14---------------13------------------12----------12---------|
-----15---------------14---------------13---------------12-----------------11----------------11------|
---16---------------15---------------14---------------13----------------12----------------------12---|
---------------------------------------------------------------------------------------------------14|
-----------------------------------------------------------------------------------------------------|
LEFT
----------------------------------------------------------------------------------------------------|
----------------------------------------------------------------------------------------------------|
----------------------------------------------------------------------------------------------------|
----------------------------------------------------------------------------------------------------|
---5----------------------------------4---------------2-----------------4---------------------------|
---5----------------------------------4---------------2-----------------4---------------------------|

2:18                                                                        2:24
BOTH
---------------------------------------------------------------------------------|
---------------------------------------------------------------------------------|
---------------------------------------------------------------------------------|
-*-*-*-*-*-*------*-*-*---_-----_-------*-*-*-*-*-*-----*-*-*-*-*-*-*-*-*--------|
-------------------------/ \---/ \--*--------------------------------------------|
-1-1-1-1-1-1------1-1-1-1-4-1-0-1-4-0---0-0-0-0-0-0-----0-0-0-0-0-0-0-0-0--------|

2:24                                                                        2:31
---------------------------------------------------------------------------------|
---------------------------------------------------------------------------------|
---------------------------------------------------------------------------------|
-*-*-*-*-*-*------*-*-*---_-----_-------*-*-*-*-*-*-----*-*-*-*-*-*-*-*-*-*------|
-------------------------/ \---/ \--*--------------------------------------------|
-1-1-1-1-1-1------1-1-1-1-4-1-0-1-4-0---0-0-0-0-0-0-----0-0-0-0-0-0-0-0-0-1------|

2:31                                                                         2:38
---------------------------------------------------------------------------------|
---------------------------------------------------------------------------------|
---------------------------------------------------------------------------------|
-*-*-*-*-*-*------*-*-*---_-----_-------*-*-*-*-*-*----*-*-*-*-*-*-*-*-*-*-------|
-------------------------/ \---/ \-----------------------------------------------|
-1-1-1-1-1-1------1-1-1-1-4-1-0-1-4-----0-0-0-0-0-0----0-0-0-0-0-0-0-0-0-1-------|

2:38                                                                        2:44
---------------------------------------------------------------------------------|
---------------------------------------------------------------------------------|
---------------------------------------------------------------------------------|
-*-*-*-*-*-*------*-*-*---_-----_-------*-*-*-*-*-*----*-*-*-*-*-*-*-*-*---------|
-------------------------/ \---/ \-----------------------------------------------|
-1-1-1-1-1-1------1-1-1-1-4-1-0-1-4----0-0-0-0-0-0-----0-0-0-0-0-0-0-0-0---------|

2:44                                                                        2:50
---------------------------------------------------------------------------------|
---------------------------------------------------------------------------------|
---------------------------------------------------------------------------------|
-*-*-*-*-*-*------*-*-*---_-----_-------*-*-*-*-*-*-----*-*-*-*-*-*-*-*-*--------|
-------------------------/ \---/ \--*--------------------------------------------|
-1-1-1-1-1-1------1-1-1-1-4-1-0-1-4-0---0-0-0-0-0-0-----0-0-0-0-0-0-0-0-0--------|
GT.3
---------------------------------------------------------------------------------|
--------------------------------------------------7------------------------------|
------------9-------------8--------------------------------------8---------------|
-------------------8--------------------------------------8----------------------|
6-------------------------------------5------------------------------------------|
---------------------------------------------------------------------------------|

2:50                                                                        2:57
---------------------------------------------------------------------------------|
---------------------------------------------------------------------------------|
---------------------------------------------------------------------------------|
-*-*-*-*-*-*------*-*-*---_-----_-------*-*-*-*-*-*-----*-*-*-*-*-*-*-*-*-*------|
-------------------------/ \---/ \--*--------------------------------------------|
-1-1-1-1-1-1------1-1-1-1-4-1-0-1-4-0---0-0-0-0-0-0-----0-0-0-0-0-0-0-0-0-1------|
GT.3
---------------------------------------------------------------------------------|
--------------------------------------------------7------------------------------|
------------9-------------8--------------------------------------8---------------|
-------------------8--------------------------------------8----------------------|
6-------------------------------------5------------------------------------------|
---------------------------------------------------------------------------------|


2:57                                                                         3:04
---------------------------------------------------------------------------------|
---------------------------------------------------------------------------------|
---------------------------------------------------------------------------------|
-*-*-*-*-*-*------*-*-*---_-----_-------*-*-*-*-*-*----*-*-*-*-*-*-*-*-*-*-------|
-------------------------/ \---/ \-----------------------------------------------|
-1-1-1-1-1-1------1-1-1-1-4-1-0-1-4-----0-0-0-0-0-0----0-0-0-0-0-0-0-0-0-1-------|
GT.3
---------------------------------------------------------------------------------|
--------------------------------------------------7------------------------------|
------------9-------------8--------------------------------------8---------------|
-------------------8--------------------------------------8----------------------|
6-------------------------------------5------------------------------------------|
---------------------------------------------------------------------------------|


3:04                                                                        3:10
---------------------------------------------------------------------------------|
---------------------------------------------------------------------------------|
---------------------------------------------------------------------------------|
-*-*-*-*-*-*------*-*-*---_-----_-------*-*-*-*-*-*----*-*-*-*-*-*-*-*-*---------|
-------------------------/ \---/ \-----------------------------------------------|
-1-1-1-1-1-1------1-1-1-1-4-1-0-1-4----0-0-0-0-0-0-----0-0-0-0-0-0-0-0-0---------|
GT.3
---------------2-----2-------------------------1-----------------|
--------4--------4-----4--------------2--------2-----------------|
------3---3--------3-----3----------3---3------3-----------------|
----------------------------------3-------3----3-----------------|
-2----------2------------------1---------------1-----------------|
-----------------------------------------------------------------|

3:10                                                           3:13
MELODY
--------------13-19-13----------------------13-19/22\19-13--------|
------------16---------16-----------------16--------------16------|
----------15-------------15-------------15------------------------|
----^---16-----------------16-----^---16---------------------15---|
--13-18----------------------18-13-18-----------------------------|
------------------------------------------------------------------|
RYTHM
----------------------------------------------------------------|
----------------------------------------------------------------|
----------------------------------------------------------------|
-----------------------------------------------------_------_---|
-1--------------------1-*-*-*-1------------*-*-*----/ \----/ \--|
-1--------------------1-1-1-1-1------------1-1-1---1-4-1--0-1-4-|

3:13                                                  3:16
MELODY
--------------12-18-12---------------------9-13-9-------------|
------------15--------15-----------------12------12-----------|
----------14------------14-------------11----------11---------|
----^---15----------------15-----^---12--------------12-------|
--12-17---------------------17--9-13-------------------13-----|
--------------------------------------------------------------|
RYTHM
----------------------------------------------------------------|
----------------------------------------------------------------|
----------------------------------------------------------------|
----------------------------------------------------------------|
-0--------------------0-*-*-*-0------------*-*-*-*-*-*-*-*-*----|
-0--------------------0-0-0-0-0------------0-0-0-0-0-0-0-0-0----|

3:16                                                         3:19 
MELODY
--------------13-19-13----------------------13-19/22\19-13--------|
------------16---------16-----------------16--------------16------|
----------15-------------15-------------15------------------------|
----^---16-----------------16-----^---16---------------------15---|
--13-18----------------------18-13-18-----------------------------|
------------------------------------------------------------------|
RYTHM
----------------------------------------------------------------|
----------------------------------------------------------------|
----------------------------------------------------------------|
-----------------------------------------------------_------_---|
-1--------------------1-*-*-*-1------------*-*-*----/ \----/ \--|
-1--------------------1-1-1-1-1------------1-1-1---1-4-1--0-1-4-|

3:19                                                      3:22 
MELODY
--------------12-18-12---------------------9-13-9-------------|
------------15--------15-----------------12------12-----------|
----------14------------14-------------11----------11---------|
----^---15----------------15-----^---12--------------12-------|
--12-17---------------------17--9-13-------------------13-----|
--------------------------------------------------------------|
RYTHM
----------------------------------------------------------------|
----------------------------------------------------------------|
----------------------------------------------------------------|
----------------------------------------------------------_-----|
-0--------------------0-*-*-*-0------------*-*-*--2\1/2--/ \----|
-0--------------------0-0-0-0-0------------0-0-0--------0-4-1---|

3:23                                                         3:26
L
--------------13-19-13----------------------13-19/22\19-13--------|
------------16---------16-----------------16--------------16------|
----------15-------------15-------------15------------------------|
----^---16-----------------16-----^---16---------------------15---|
--13-18----------------------18-13-18-----------------------------|
------------------------------------------------------------------|
R
-19-14-----------------------14-19/22\19-14------------------------|
-------16-----------------16---------------16----------------------|
---------15-------------15-------------------15-------------15-----|
-----------16-----^---16-----------------------16---------16-------|
-------------18-13-18-----------------------------18-13-18---------|
-------------------------------------------------------------------|
RYTHM
----------------------------------------------------------------|
----------------------------------------------------------------|
----------------------------------------------------------------|
-----------------------------------------------------_------_---|
-1--------------------1-*-*-*-1------------*-*-*----/ \----/ \--|
-1--------------------1-1-1-1-1------------1-1-1---1-4-1--0-1-4-|

3:26                                                      3:29 
L
--------------12-18-12---------------------9-13-9-------------|
------------15--------15-----------------12------12-----------|
----------14------------14-------------11----------11---------|
----^---15----------------15-----^---12--------------12-------|
--12-17---------------------17--9-13-------------------13-----|
--------------------------------------------------------------|
R   ^
--18-13---------------------13------------13-17-13------------|
--------15----------------15------------15--------15--15-17---|
----------14------------14------------14------------14--------|
------------15-----^--15---------^--15------------------------|
--------------17-12-17---------12-17--------------------------|
--------------------------------------------------------------|
RYTHM
----------------------------------------------------------------|
----------------------------------------------------------------|
----------------------------------------------------------------|
----------------------------------------------------------------|
-0--------------------0-*-*-*-0------------*-*-*-*-*-*-*-*-*----|
-0--------------------0-0-0-0-0------------0-0-0-0-0-0-0-0-0----|

3:29                                                          3:32
L
--------------13-19-13----------------------13-19/22\19-13--------|
------------16---------16-----------------16--------------16------|
----------15-------------15-------------15------------------------|
----^---16-----------------16-----^---16---------------------15---|
--13-18----------------------18-13-18-----------------------------|
------------------------------------------------------------------|
R
-19-14-----------------------14-19/22\19-14------------------------|
-------16-----------------16---------------16----------------------|
---------15-------------15-------------------15-------------15-----|
-----------16-----^---16-----------------------16---------16-------|
-------------18-13-18-----------------------------18-13-18---------|
-------------------------------------------------------------------|
RYTHM
----------------------------------------------------------------|
----------------------------------------------------------------|
----------------------------------------------------------------|
-----------------------------------------------------_------_---|
-1--------------------1-*-*-*-1------------*-*-*----/ \----/ \--|
-1--------------------1-1-1-1-1------------1-1-1---1-4-1--0-1-4-|

3:32                                         __                   __     END
L                                           /  \                 /  \
--------------12-18-12---------------------9-13-9--------------12-16-12-----|
------------15--------15-----------------12------12---------14--------14----|
----------14------------14-------------11----------11-----13-----------13---|
----^---15---------------15-----^---12---------------12-14------------------|
--12-17--------------------17--9-13-----------------------------------------|
----------------------------------------------------------------------------|
 -                                           __                   __
R   ^                                       /  \                 /  \
--18-13---------------------13------------13-17-13-------------14-18-14----|
--------15----------------15------------15--------15---------16--------16--|
----------14------------14------------14------------14-----15-----------15-|
------------15-----^--15------------15----------------15-16----------------|
--------------17-12-17---------12-17---------------------------------------|
---------------------------------------------------------------------------|
RYTHM
---------------------------------------------------------------------------|
---------------------------------------------------------------------------|
---------------------------------------------------------------------------|
------------------------------------------------------4--3--9--------------|
-0--------------------0-*-*-*-0------------*-*-*------2--1--7--------------|
-0--------------------0-0-0-0-0------------0-0-0---------------------------|
Добавлено: 09.07.2012
Другие материалы по этой песне:
  • Аккорды и текст

Страница создана 09.07.2012
http://primanota.ru/conducting-from-the-grave/the-tyrants-throne-chords.htm
Привет, Гость.
Предлагаем пройти революционный курс по гитаре.
Подарок от PrimaNota.Ru, забирай!