PrimaNota.ru - самый крупный в мире бесплатный архив песенных текстов, аккордов, табулатур и нот


Conducting From The Grave - Revenants - таба, видео

Регистрация Запомнить меня
Войти через:  Facebook Google Twitter Vk Yandex Mail.ru

Conducting From The Grave - Revenants - таба, видео

Печатать
Просмотров: 108
CONDUCTTING FROM THE GRAVE
REVENANTS
C-G-C-F-A-D
TABBED BY andherembrace

)=BEND
///=TREMELO PICKED
NOTES IN'()'ARE NOT PICKED
/OR\ SLIDE UP OR DOWN
*=PALM MUTE

MELODY
0:02                                                        0:08  

----)-----------11-----11---------)-----------11------17-----11--|
--16-/(19)-15-------15-----15---16-/(19)-15-------15-----15--15--|
-----------------------------------------------------------------|
-----------------------------------------------------------------|
-----------------------------------------------------------------|
-----------------------------------------------------------------|
RYTHM
----------------------------------------------------------------|
----------------------------------------------------------------|
----------------------------------------------------------------|
--0----0----0---0--0--0--0-----*----*----*----*----*--*--*--*---|
--0----0----0---0--0--0--0-----0----0----0----0----0--0--0--0---|
--0----0----0---0--0--0--0-----1----0----1----0----0--1--1--0---|


MELODY
0:08                                                        0:14

----)-----------11-----11---------)-----------11------17---------|
--16-/(19)-15-------15-----15---16-/(19)-15-------15-----15------|
------------------------------------------------------------14---|
-----------------------------------------------------------------|
-----------------------------------------------------------------|
-----------------------------------------------------------------|
RYTHM
-----------------------------------------------------------------|
-----------------------------------------------------------------|
-----------------------------------------------------------------|
--0----0----0---0--0--0--0-----*----*----*----*----*--*--*--*----|
--0----0----0---0--0--0--0-----0----0----0----0----0--0--0--0----|
--0----0----0---0--0--0--0-----1----0----0----1----0--1--1--0----|

MELODY
0:14                            0:17

---)------------11-----11----------|
-16-/(19)-15--------15-----15------|
-----------------------------------|
-----------------------------------|
-----------------------------------|
-----------------------------------|
RYTHM
-----------------------------------|
-----------------------------------|
-----------------------------------|
--------------------*-*-*-*--------|
--------------------0-0-0-0--------|
--------------------0-1-1-0--------|

MELODY
0:18                                                        0:23   

----)-----------11-----11--------)-----------11------17-----11--|
--16-/(19)-15-------15----15---16-/(19)-15-------15-----15--15--|
----------------------------------------------------------------|
----------------------------------------------------------------|
----------------------------------------------------------------|
----------------------------------------------------------------|
RYTHM
----------------------------------------------------------------|
----------------------------------------------------------------|
----------------------------------------------------------------|
--*----*----*----*---*---*---*-----*----*----*----*----*-*-*-*--|
--0----0----0----0---0---0---0-----0----0----0----0----0-0-0-0--|
--0----1----0----1---0---1---0-----1----0----1----0----0-0-0-0--|

MELODY
0:23                                                       0:29 

---)-----------11-----11---------)------------------------------|
-16-/(19)-15-------15----15----15---13---15---------------------|
----------------------------------------------15--15\14--14-----|
----------------------------------------------------------------|
----------------------------------------------------------------|
----------------------------------------------------------------|
RYTHM
----------------------------------------------------------------|
----------------------------------------------------------------|
----------------------------------------------------------------|
-*----*----*----*----*--*--*------------------------5--4--7-----|
-0----0----0----0----0--0--0------)-----------------------------|
-1----0----1----0----0--1--0----1----0----1----4--4-------------|

MELODY
0:30                                                       0:36

----)-----------11-----11--------)-----------11------17-----11--|
--16-/(19)-15-------15----15---16-/(19)-15-------15-----15--15--|
----------------------------------------------------------------|
----------------------------------------------------------------|
----------------------------------------------------------------|
----------------------------------------------------------------|
RYTHM
----------------------------------------------------------------|
----------------------------------------------------------------|
----------------------------------------------------------------|
--*----*----*----*---*---*---*-----*----*----*----*----*-*-*-*--|
--0----0----0----0---0---0---0-----0----0----0----0----0-0-0-0--|
--0----1----0----1---0---1---0-----1----0----1----0----0-0-0-0--|

MELODY
0:37                                                       0:42

---)-----------11-----11---------)------------------------------|
-16-/(19)-15-------15----15----15---13---15---------------------|
----------------------------------------------15--15\14--14-----|
----------------------------------------------------------------|
----------------------------------------------------------------|
----------------------------------------------------------------|
RYTHM
----------------------------------------------------------------|
----------------------------------------------------------------|
----------------------------------------------------------------|
-*----*----*----*----*--*--*------------------------5--4--7-----|
-0----0----0----0----0--0--0------)-----------------------------|
-1----0----1----0----0--1--0----1----0----1----4--4-------------|

LEFT
0:42                                                                 0:47

----------------)----------------------^------^------------------)---------|
--------------13-/(16)-12------------10-9---10-9---------------13-/(16)-12-|
------------------------------------------8------8-------------------------|
---------------------------------------------------------------------------|
-*-***-*-*-*-------------*-***-*-*-*---------------*-***-*-*-*-------------|
-0-000-0-0-0-------------0-000-0-0-0---------------0-000-0-0-0-------------|

RIGHT
---------------)-------------------------------------------------)---------|
-------------16-/(19)-15---------------------------------------16-/(19)-15-|
---------------------------------------------------------------------------|
---------------------------------------------------------------------------|
-*-***-*-*-*-------------*-***-*-*-*--7-6-*-7-5-*--*-***-*-*-*-------------|
-0-000-0-0-0-------------0-000-0-0-0--7\6-6-7\5-2--0-000-0-0-0-------------|

LEFT
0:47                                                                                         0:54

--^------^------^------^----0----0----0----0----11---11---11----11--------------------------------|
10-9---10-9---10-9---10-9-----9----9----9----9----12---12---12------------12----12-----12----12---|
-----8------8------8------8-----8----8----8----8----11---11---11--------11----11-----11----11---11|
-------------------------------------------------------------------13-14----14-----14----14-------|
--------------------------------------------------------------------------------------------------|
--------------------------------------------------------------------------------------------------|

--------------------------------------------------------------------------------------------------|
--------------------------------------------------------------------------------------------------|
-------------------------------------------------------------------------111111111111111111111111-|
----------------------------------------------^--4-4-4-4-4-4-4-4-4-4-8-9--9-9-9-9-9-9-9-9-9-9-9-9-|
-7-6-*-*-*-*-6-3-*-*-*-*-2-2-2-*-*-*-2-2-2-2-0-1-2-2-2-2-2-2-2-2-2-2-6/7--9-9-9-9-9-9-9-9-9-9-9-9-|
-7\6-6-6-6-6-6\3-3-3-3-3-2-2-2-2-2-2-2-2-2-2------------------------------------------------------|


LEFT
0:55                                                                               1:00

-----------------------------------------11-1111111111-11111111-------------------------|
----------12-12121212-11-11111111---------9--9-9-9-9-9--9-9-9-9-11-1111111111-11111111--|
-8--8888--9---9-9-9-9--8--8-8-8-8-9-9999--9--9-9-9-9-9--9-9-9-9--9--9-9-9-9-9--9-9-9-9--|
-6--6666--------------------------8-8888------------------------------------------------|
-6--6666--------------------------------------------------------------------------------|
----------------------------------------------------------------------------------------|

RIGHT
-------------------------------------------------------------------------------------|
-------------------------------------------------------------------------------------|
-8---88888--6-6-6--6-4--4-4--4--3-4-3--4--4-4-4-4-4--4-4-4-4--9--9-9-9-9-9--9-9-9-9--|
-x---xxxxx--x-x-x--x-x--x-x--x--x-x-x--x--x-x-x-x-x--x-x-x-x--x--x-x-x-x-x--x-x-x-x--|
-6---66666--4-4-4--4\2--2-2--2--1-2-1--2--2-2-2-2-2--2-2-2-2--7--7-7-7-7-7--7-7-7-7--|
-------------------------------------------------------------------------------------|

LEFT
1:01                                                                1:07

------------------------------------------9-99999-9999-11-11111111-9-999-|
----------12-12121212-11-11111111---------9-99999-9999--9--9-9-9-9-9-999-|
-8--8888--9---9-9-9-9--8--8-8-8-8-9-9999--9-99999-9999--9--9-9-9-9-9-999-|
-6--6666--------------------------8-8888---------------------------------|
-6--6666-----------------------------------------------------------------|
-------------------------------------------------------------------------|

RIGHT
--------------------------------------------------------------------------------|
------------------------------------14--141414-14--141414-16--16161616-14-141414|
---6--8------------------------------x---x-x-x--x---x-x-x--x---x-x-x-x--x--x-x-x|
---------9--6--8--------------------11--111111-11--111111-13--13131313-11-111111|
-6----------------9--6--7-----6--7----------------------------------------------|
-6-------------------------9----------------------------------------------------|

LEFT
1:08                                                                                1:13

-----------------------------------------11-1111111111-11111111-------------------------|
----------12-12121212-11-11111111---------9--9-9-9-9-9--9-9-9-9-11-1111111111-11111111--|
-8--8888--9---9-9-9-9--8--8-8-8-8-9-9999--9--9-9-9-9-9--9-9-9-9--9--9-9-9-9-9--9-9-9-9--|
-6--6666--------------------------8-8888------------------------------------------------|
-6--6666--------------------------------------------------------------------------------|
----------------------------------------------------------------------------------------|

RIGHT
---------------------------------------------------------------------|
---------------------------------------------------------------------|
-8---88888--6-6-6--6-4--4-4--4--3-4-3--4--44444-4444--9--99999-9999--|
-x---xxxxx--x-x-x--x-x--x-x--x--x-x-x--x--xxxxx-xxxx--x--xxxxx-xxxx--|
-6---66666--4-4-4--4\2--2-2--2--1-2-1--2--22222-2222--7--77777-7777--|
---------------------------------------------------------------------|

LEFT
1:14                                                                 1:20

------------------------------------------9-99999-9999-11-11111111-9-999-|
----------12-12121212-11-11111111---------9-99999-9999--9--9-9-9-9-9-999-|
-8--8888--9---9-9-9-9--8--8-8-8-8-9-9999--9-99999-9999--9--9-9-9-9-9-999-|
-6--6666--------------------------8-8888---------------------------------|
-6--6666-----------------------------------------------------------------|
-------------------------------------------------------------------------|

RIGHT
--------------------------------------------------------------------------------|
------------------------------------14--141414-14--141414-16--16161616-14-141414|
---6--8------------------------------x---x-x-x--x---x-x-x--x---x-x-x-x--x--x-x-x|
---------9--6--8--------------------11--111111-11--111111-13--13131313-11-111111|
-6----------------9--6--7-----6--7----------------------------------------------|
-6-------------------------9----------------------------------------------------|

CLEAN SECT.
1:21                                                                           1:30
 B    LLLLLLLLLLLLLLLLLLLLLLLL B   RRRRRRR  B   LLLLLLLLLLLLLLLLLLLLLL B    RRRRRRR
------------7-----6-----0----------------6------------7-----6----0----------------6-|
---------9----9-----9-----9-----------8------------9----9-----9----9-----------8----|
--------8-------8-----8-----8--------7------------8-------8-----8----8--------7-----|
-------6----------------------------5------------6---------------------------5------|
--6---6------------------------5---5--------6---6-----------------------5---5-------|
--6----------------------------5------------6---------------------------5-----------|

1:31                                                              1:38
 B   LLLLLLLLLLLLLLLLLLLLL  B   RRRRRRR  B   RRRRRRRRRRRRRRRRRRRRR

-----------3----2----3----------------2------------3----2----3--------|
--------5----5----5----5-----------4------------5----5----5----5------|
-------4-------4----4----4--------3------------4-------4----4----4----|
------2--------------------------1------------2-----------------------|
-2---2----------------------1---1--------2---2------------------------|
-2--------------------------1------------2----------------------------|

LEFT
1:39                   1:41
-----0----0----0----0------|
-------4----4----4----4----|
---------3----3----3-------|
---------------------------|
---------------------------|
-1-------------------------|


-----0----0----0----0------|
-------7----7----7----7----|
---------8----8----8-------|
---------------------------|
-6-------------------------|
---------------------------|

LEFT 
1:41                                                         1:44

------------///-------------///----------------------------------|
-------------7---------------8--------------///-///-///----------|
-------------8---------------9---------------8---7---4-----------|
-*-***-*-*-*---------------------------------9---8---5-----------|
-----------------------------------------------------------------|
-6-666-6-6-6-----------------------------------------------------|

RIGHT
--------------------------------------------------------------|
------------///-----///-///-///-----///--///------------------|
-------------8-------6---8---9-------8---6--///-///-///-------|
-*-***-*-*-*---------------------------------9---8---5--------|
--------------------------------------------------------------|
-6-666-6-6-6--------------------------------------------------|

LEFT
1:44                                                                                        1:48

------------------------------------------------------------------------------------------------|
-------------7-7-7-7-7-7-7-7-7-7-7-7-8-8-8-8-8-8-8-8-8-8-8-8-12-12-12-12-12-12-12-12-12-12-12-12|
-------------8-8-8-8-8-8-8-8-8-8-8-8-9-9-9-9-9-9-9-9-9-9-9-9-13-13-13-13-13-13-13-13-13-13-13-13|
-*-***-*-*-*------------------------------------------------------------------------------------|
------------------------------------------------------------------------------------------------|
-6-666-6-6-6------------------------------------------------------------------------------------|

RIGHT
-----------------------------_____--------_____--------_____--------_____----|
------------///------^--T---/     \---T--/     \---T--/     \---T--/     \---|
-------------8------6-8-13-9-8-6-8-9-12-9-8-6-8-9-16-9-8-6-8-9-15-9-8-6-8-9--|
-*-***-*-*-*-----------------------------------------------------------------|
-----------------------------------------------------------------------------|
-6-666-6-6-6-----------------------------------------------------------------|

LEFT
1:48                                                                                      1:51

----------------------------------------------------------------------------------------------|
-----------8-8-8-8-8-8-8-8-8-8-8-8-7-7-7-7-7-7-7-7-7-7-7-7-11-11-11-11-11-11-11-11-11-11-11-11|
-----------9-9-9-9-9-9-9-9-9-9-9-9-8-8-8-8-8-8-8-8-8-8-8-8-12-12-12-12-12-12-12-12-12-12-12-12|
***-*-*-*-*-----------------------------------------------------------------------------------|
----------------------------------------------------------------------------------------------|
222-2-2-2-2-----------------------------------------------------------------------------------|

RIGHT
----------------------------------------------------|
----------------------------------------------------|
--------------4-----4-----3-----3-----7-----7-------|
-***-*-*-*-*----5-2---5-2---4-1---4-1---8-5---8-5---|
----------------------------------------------------|
-222-2-2-2-2----------------------------------------|


LEFT
1:51                                 _         _         __       1:54
                                    / \       / \       /  \              
------------------------------------3-6-3-----6-9-6-----9-12-9--------|
-------------8-8-8-8-8-8-8-8-8-8-8-8------4---------7----------10-----|
-------------9-9-9-9-9-9-9-9-9-9-9-9-------5---------8-----------11---|
-***-*-*-*-*--------------------------------6---------9------------12-|
----------------------------------------------------------------------|
-222-2-2-2-2----------------------------------------------------------|
                                      _         _        __
RIGHT                                / \       / \      /  \
------------------------------------3-6-3-----6-9-6----9-12-9--------|
----------------------------------3-------4---------7---------10-----|
-------------4-------------^----4----------5---------8----------11---|
-***-*-*-*-*---5-4-2-4-5--2-4-5-------------6---------9-----------12-|
---------------------------------------------------------------------|
-222-2-2-2-2---------------------------------------------------------|


1:41-1:55 REPEATS 1:55-2:09


2:09                                                 2:13

BBBBBBBBBBBB   LLLLLLLLLLL  BBBBBBBBBBBB   LLLLLLLLLLLL
---------------------------------------------------------|
---------------------------------------------------------|
---------------------------------------------------------|
---------------------------------------------------------|
-*-***-*-*-*---*-***-*-*-*--******-*-*-*---******-*-*-*--|
-0-000-0-0-0---1-111-1-1-1--000000-0-0-0---111111-1-1-1--|

2:13                                                  2:16

BBBBBBBBBBBB   LLLLLLLLLLL  BBBBBBBBBBBB      LLLLLLLLL
----------------------------------------------------------|
----------------------------------------------------------|
----------------------------------------------------------|
----------------------------------------------------------|
-*-***-*-*-*---*-***-*-*-*--******-*-*-*------*-*-*-*-*---|
-0-000-0-0-0---1-111-1-1-1--000000-0-0-0------1-1-1-1-1---|

BOTH GTRS, REPEATS TIL END
2:16
----------------------------------------------------------------------------|
----------------------------------------------------------------------------|
----------------------------------------------------------------------------|
----------------------------------------------------------------------------|
-*-***-*-*-*----*-***-*-*-*----*-***-*-*-*----******-*-*-*----******-*-*-*--|
-0-000-0-0-0----0-000-0-0-0----0-000-0-0-0----000000-0-0-0----000000-0-0-0--|


----------------------------------------------------------------------------------|
------------------------------------------------------------------R SIDE BEND-----|
-------------------------------------------------------------------4 ON 4TH-STRING|
---------------------------)-------------)-------------)---------------)----------|
-*-**-*-*-*-*--*-*-*-*-*-3---*-*-*-*-*-3---*-*-*-*-*-6---*-*-*-*-*-*-6------------|
-8-77-5-4-5-4--1-1-1-1-1-----1-1-1-1-1-----4-4-4-4-4-----4-4-4-4-4-4--------------|

Добавлено: 25.06.2012
Другие материалы по этой песне:
  • Аккорды и текст

Страница создана 25.06.2012
http://primanota.ru/conducting-from-the-grave/revenants-chords.htm
Привет, Гость.
Предлагаем пройти революционный курс по гитаре.
Подарок от PrimaNota.Ru, забирай!