PrimaNota.ru - самый крупный в мире бесплатный архив песенных текстов, аккордов, табулатур и нот


Conducting From The Grave - Path Of A Traitor - таба, видео

Регистрация Запомнить меня
Войти через:  Facebook Google Twitter Vk Yandex Mail.ru

Conducting From The Grave - Path Of A Traitor - таба, видео

Печатать
Просмотров: 107
Conducting from the grave
Path of a traitor
c-g-c-f-a-d
tabbed by andherembrace

*=PM
                                                                    O:05
B
------------------------------------------------------------------------|
------------------------------------------------------------------------|
------------------------------------------------_-----------------------|
------------------_-----_---------------*--*---/ \---/5--4-------*-*----|
-6-5-------------/ \---/ \--5--4--1--0--3--1--0-1-0--------6--5--3-5-6--|
------8-7-5-4-3-4-5-7-1-2-4-5--4--1--0----------------------------------|

0:05                                                             0:07
L
---------------------------------------------------------------------|
---------------------------------------------------------------------|
---------------------------------------------------------------------|
------------------------5-5-5-5-5-5-4-4-4-4-4-4-4-4-4-4-4-4-4-4-4-4--|
---------------------------------------------------------------------|
4-4-4-4-4-4-1-1-1-1-1-1----------------------------------------------|
R
---------------------------------------------------------------------|
---------------------------------------------------------------------|
---------------------------------------------------------------------|
---------------------------------------------------------------------|
------------------------5-5-5-5-5-5-5-5-5-5-5-5-5-5-5-5-5-5-5-5-5-5--|
4-4-4-4-4-4-1-1-1-1-1-1----------------------------------------------|

0:07                                                             0:09
L
---------------------------------------------------------------------|
---------------------------------------------------------------------|
---------------------------------------------------------------------|
------------------------8-8-8-8-8-8-7-7-7-7-7-7-7-7-7-7-7-7-7-7-7-7--|
---------------------------------------------------------------------|
4-4-4-4-4-4-1-1-1-1-1-1----------------------------------------------|
R
---------------------------------------------------------------------|
---------------------------------------------------------------------|
---------------------------------------------------------------------|
---------------------------------------------------------------------|
------------------------6-6-6-6-6-6-6-6-6-6-6-6-6-6-6-6-6-6-6-6-6-6--|
4-4-4-4-4-4-1-1-1-1-1-1----------------------------------------------|

0:09                                                             0:11
L
---------------------------------------------------------------------|
---------------------------------------------------------------------|
------------------------8-8-8-8-8-8-7-7-7-7-7-7-7-7-7-7-7-7-7-7-7-7--|
---------------------------------------------------------------------|
---------------------------------------------------------------------|
4-4-4-4-4-4-1-1-1-1-1-1----------------------------------------------|
R
---------------------------------------------------------------------|
---------------------------------------------------------------------|
---------------------------------------------------------------------|
---------------------------------------------------------------------|
------------------------9-9-9-9-9-9-9-9-9-9-9-9-9-9-9-9-9-9-9-9-9-9--|
4-4-4-4-4-4-1-1-1-1-1-1----------------------------------------------|

0:11                                      0:13
L
-----------------------------------------------|
-----------------------------------------------|
----------7----7-8-10-8-10-12-10-8-------------|
-8-7-8-10---10---------------------12-10-------|
-----------------------------------------------|
-----------------------------------------------|
R
-----------------------------------------------|
-----------------------------------------------|
-----------------------------------------------|
------------8----8-10-12-10-12-13-12-10--------|
-10-9-10-12---12------------------------13-12--|
-----------------------------------------------|


0:14                                                             0:16
L
---------------------------------------------------------------------|
---------------------------------------------------------------------|
---------------------------------------------------------------------|
------------------------5-5-5-5-5-5-4-4-4-4-4-4-4-4-4-4-4-4-4-4-4-4--|
---------------------------------------------------------------------|
4-4-4-4-4-4-1-1-1-1-1-1----------------------------------------------|
R
---------------------------------------------------------------------|
---------------------------------------------------------------------|
---------------------------------------------------------------------|
---------------------------------------------------------------------|
------------------------5-5-5-5-5-5-5-5-5-5-5-5-5-5-5-5-5-5-5-5-5-5--|
4-4-4-4-4-4-1-1-1-1-1-1----------------------------------------------|

0:16                                                             0:18
L
---------------------------------------------------------------------|
---------------------------------------------------------------------|
---------------------------------------------------------------------|
------------------------8-8-8-8-8-8-7-7-7-7-7-7-7-7-7-7-7-7-7-7-7-7--|
---------------------------------------------------------------------|
4-4-4-4-4-4-1-1-1-1-1-1----------------------------------------------|
R
---------------------------------------------------------------------|
---------------------------------------------------------------------|
---------------------------------------------------------------------|
---------------------------------------------------------------------|
------------------------6-6-6-6-6-6-6-6-6-6-6-6-6-6-6-6-6-6-6-6-6-6--|
4-4-4-4-4-4-1-1-1-1-1-1----------------------------------------------|

0:18                                                            0:20
L
---------------------------------------------------------------------|
---------------------------------------------------------------------|
------------------------8-8-8-8-8-8-7-7-7-7-7-7-7-7-7-7-7-7-7-7-7-7--|
---------------------------------------------------------------------|
---------------------------------------------------------------------|
4-4-4-4-4-4-1-1-1-1-1-1----------------------------------------------|
R
---------------------------------------------------------------------|
---------------------------------------------------------------------|
---------------------------------------------------------------------|
---------------------------------------------------------------------|
------------------------9-9-9-9-9-9-9-9-9-9-9-9-9-9-9-9-9-9-9-9-9-9--|
4-4-4-4-4-4-1-1-1-1-1-1----------------------------------------------|

0:20                                      0:22
L
-----------------------------------------------|
-----------------------------------------------|
----------7----7-8-10-8-10-12-10-8-------------|
-8-7-8-10---10---------------------12-10-------|
-----------------------------------------------|
-----------------------------------------------|
R
-----------------------------------------------|
-----------------------------------------------|
-----------------------------------------------|
------------8----8-10-12-10-12-13-12-10--------|
-10-9-10-12---12------------------------13-12--|
-----------------------------------------------|

0:22                                       0:24
L
-----------------------------------------------|
-----------------------------------------------|
------------------------///--------------------|
8-8-8-8-8-8-7-7-7-7-7-7-10---------------------|
-----------------------------------------------|
-----------------------------------------------|
R
-----------------------------------------------|
-----------------------------------------------|
------------------------///--------------------|
5-5-5-5-5-5-4-4-4-4-4-4-7----------------------|
-----------------------------------------------|
-----------------------------------------------|

0:25                                        0:27
L
-----------------------------------------------|
-----------------------------------------------|
------------------------///--------------------|
8-8-8-8-8-8-7-7-7-7-7-7-12---------------------|
-----------------------------------------------|
-----------------------------------------------|
R
-----------------------------------------------|
-----------------------------------------------|
------------------------///--------------------|
5-5-5-5-5-5-4-4-4-4-4-4-8----------------------|
-----------------------------------------------|
-----------------------------------------------|

0:27                                       0:30
L
-----------------------------------------------|
-------------------------------///-------------|
------------------------///----11--------------|
8-8-8-8-8-8-7-7-7-7-7-7-13---------------------|
-----------------------------------------------|
-----------------------------------------------|
R
-----------------------------------------------|
-----------------------------------------------|
------------------------///----///-------------|
5-5-5-5-5-5-4-4-4-4-4-4-10-----12--------------|
-----------------------------------------------|
-----------------------------------------------|

0:30                                                          0:32
B
----__-------------------------------------------------------------|
---/  \------------------__-------__-------------------------__----|
-11-12-11----11---------/  \-----/  \------__------__-------/  \---|
----------13----13-12-10-12-10-13-12-10---/  \----/  \----12-14-16-|
----------------------------------------13-12-10-9-10-12-----------|
-------------------------------------------------------------------|

0:32                                            0:37
L
----------------------------------------------------|
------------------------__--------------------------|
/15-14--12-11---*--*---/  \-------------------------|
---------------13-12-10-12-10---------------*--*----|
------------------------------13-12--10-9--10-12-13-|
----------------------------------------------------|
R
----------------------------------------------------|
----------------------------------------------------|
/12-11-----------------__---------------------------|
--------13-12--*--*---/  \--------------------------|
--------------15-13-12-13-12-10-9-------------------|
-----------------------------------13-12--10-12-13--|

PART 0:05-0:37 REPEATS 0:37-1:08


1:09                                             1:13
MELODY
-----------------------------------------------------|
-----------------------------------------------------|
-----------7/11\7-----------------7/11\7-/14---------|
--------8---------8------------8---------------------|
-6--10--------------10--6--10------------------------|
-----------------------------------------------------|
RYTHM
--------)--------)------------)---------------------|
-------3--------3------------3----------3-3---------|
-------2--------2------------2----------2-2---------|
----------------------------------------------------|
-1--1------1--------1--1--1--------1----------------|
-1--1------1--------1--1--1--------1----------------|

1:13                                              1:17
MELODY
--------------------------------------------------------|
--------------------------------------------------------|
-----------7/11\7-----------------7/11\7-/14------------|
--------8---------8------------8------------------------|
-6--10--------------10--6--10---------------------------|
--------------------------------------------------------|
RYTHM
--------)----------)----------------------------------|
-------3----------3-----------------------------------|
-------2----------2-----------------------------------|
------------------------------------------------------|
-1--1--------1----------------------------------------|
-1--1--------1-------------1--1--1--1--4--4--4--------|

1:17                                                                         1:27
L
------------------------------------------------------------------------------------|
------------------------------------------------------------------------------------|
------------------------------------------------------------------------------------|
-------------------------------*-*-*---------------------------*-*-*----*-*-*-------|
--^---^--******--^---^--******-------*-*-----^---^---^--******----------------5-4---|
-1-0-1-0-000000-1-0-1-0-000000-0-0-0-8-7-5|-1-0-1-0-1-0-000000-0-0-0-0--0-0-0-----7-|
R
--------------------------------------------------------------------------------------|
--------------------------------------------------------------------------------------|
--------------------------------------------------------------------------------------|
-------------------------------*-*-*---------------------------*-*-*----*-*-*---------|
-*---*----------*---*----------------*-*----*---*---*---------------------------------|
-0---0----------0---0----------0-0-0-7-5-4--0---0---0----------0-0-0-0--0-0-0--8-7-4--|

PART 1:09-1:27 REPEATS 1:27-1:44 

1:44                                              1:49
MELODY
-----------------------------------------------------|
-----------------------------------------------------|
-----------7/11\7-----------------7/11\7-/14---------|
--------8---------8------------8---------------------|
-6--10--------------10--6--10------------------------|
-----------------------------------------------------|
RYTHM
--------)--------)------------)---------------------|
-------3--------3------------3----------3-3---------|
-------2--------2------------2----------2-2---------|
----------------------------------------------------|
-1--1------1--------1--1--1--------1----------------|
-1--1------1--------1--1--1--------1----------------|

1:49                                              1:53
MELODY
--------------------------------------------------------|
--------------------------------------------------------|
-----------7/11\7---------------------------------------|
--------8---------8-----8--7-------/12--11--------------|
-6--10--------------10--------10------------13----------|
--------------------------------------------------------|
RYTHM
--------)----------)----------------------------------|
-------3----------3-----------------------------------|
-------2----------2-----------------------------------|
------------------------------------------------------|
-1--1--------1----------------------------------------|
-1--1--------1-------------1--1--1--1--4--4--4--------|

2 LINE RIFF 6 TIMES LAST 3 L GTR PLAYS PM'D TRIPLETS FOR 
1ST HALF OF RIFF

1:53
B
--------------------------------__-----------------|
-------------------------------/  \----------------|
---__--------11--------------14-15-14--------------|
--/  \----------13-10-----------------16-13--------|
12-15-12-*-*----------12-*-*----------------17-16--|
---------0-0-------------0-0-----------------------|
                                  __                 2:21
---------------------------------/  \---------------------|
-------------------------------15-16-15-------------------|
---__-----------------------------------15-12-15-12-------|
--/  \--------11----10------------------------------13----|
12-15-12-*-*-----12----12-*-*--------------------------15-|
---------0-0--------------0-0-----------------------------|

2:21,2:25,2:29,2:34                                                       2:25,2:29,2:38
L
--------------------------------------------------------------------__--------13---------|
-------------------------------------------------------------------/  \--11/15--15-13-16-|
--/\--------------------------------------^-----------------------8-11-8-----------------|
131713----17-13-17-13-------------------17-13-----17-13-17-13----------------------------|
------*-*-------------*-*-13---------13-------*-*-------------*-*------------------------|
------0-0-------------0-0----17-13-17---------0-0-------------0-0------------------------|
R
---------------------------------------------------------------------------------13---------|
--/\----------------------------------------^-------------------------__------------15-13/15|
121512-----15-12-15-12--------------------15-12-----15-12-15-12------/  \---14/17-----------|
---------------------------13--------------------------------------12-14-12-----------------|
-------*-*-------------*-*----15-13-15-17-------*-*-------------*-*-------------------------|
-------0-0-------------0-0----------------------0-0-------------0-0-------------------------|

2:38,2:47,2:56,3:05                                                            2:47,3:05,3:13
L
-----------------------------------------------------------------------------------------------|
----------------------------------------------6------------------------------------------------|
------------------------------------------------7-6--------------------------------------------|
-----------------------------------------------------------------------------------------------|
***--***-***--***-***-***-***--***-***--------------***--***-***--***-***-***-***--***-***-4---|
000--000-000--000-000-000-000--000-000-10\-2/-------000--000-000--000-000-000-000--000-000---5~|

------------------------------------------------------------------------------------------------|
------------------------------------------------------------------------------------------------|
------------------------------------------------------------------------------------------------|
--------------------------------------------*-*-------------------------------------------------|
***--***-***--***-***-***-***--***-***------5-4----***--***-***--***-***-***-***--***-***----1--|
000--000-000--000-000-000-000--000-000---2/-----7--000--000-000--000-000-000-000--000-000------2|


RIFF 1:09-1:27 REPEATS 2 TIMES

3:49                                          3:53
L
----------------------------------------------------|
----------------------------------------------------|
/12-11-----------------__---------------------------|
--------13-12--*--*---/  \--------------------------|
--------------15-13-12-13-12-10-9-------------------|
-----------------------------------13-12--10-12-13--|
R
----------------------------------------------------|
-------3--------3------------3----------3-3---------|
-------2--------2------------2----------2-2---------|
----------------------------------------------------|
-1--1------1--------1--1--1--------1----------------|
-1--1------1--------1--1--1--------1----------------|

3:53
L
----------------------------------------------------|
------------------------__--------------------------|
/15-14--12-11---*--*---/  \-------------------------|
---------------13-12-10-12-10---------------*--*----|
------------------------------13-12--10-9--10-12-13-|
----------------------------------------------------|
R
----------------------------------------------------|
----------------------------------------------------|
/12-11-----------------__---------------------------|
--------13-12--*--*---/  \--------------------------|
--------------15-13-12-13-12-10-9-------------------|
-----------------------------------13-12--10-12-13--|

Добавлено: 26.02.2012
Другие материалы по этой песне:
  • Аккорды и текст

Страница создана 26.02.2012
http://primanota.ru/conducting-from-the-grave/path-of-a-traitor-chords.htm
Привет, Гость.
Предлагаем пройти революционный курс по гитаре.
Подарок от PrimaNota.Ru, забирай!