PrimaNota.ru - самый крупный в мире бесплатный архив песенных текстов, аккордов, табулатур и нот


Conducting From The Grave - Nevermore - таба, видео

Регистрация Запомнить меня
Войти через:  Facebook Google Twitter Vk Yandex Mail.ru

Conducting From The Grave - Nevermore - таба, видео

Печатать
Просмотров: 115
Conducting From The Grave
Nevermore
c-g-c-f-a-d
everything but the solo is tabbed here
i'll eventually update it


beginning
-----------------------------------|
-----------------------------------|
-----------------------------------|
----------5-----------8------7-----|
----~-----------6------------------|
--1/5------------------------------|

Riff A both gtrs.0:06-0:46,1:50-2:29
--------------------------------------------------------------------|
----------------------------_---------------------------------------|
---------------------------/ \--------------------------------------|
-------555555------888888-7-8-7-pm-7--*-*---------------------------|
-------------666666-------------10---10-9-666666-------------999999-|
-555555-----------------------------------------101010101010--------|

------------------------------------|
------------------------------------|
------------------------------------|
888888-7***-7-**--10--*-*-*-10--*-*-|
--------999---99-----121212----1212-|
------------------------------------|

--------------------------------------------------------------------|
----------------------------_---------------------------------------|
---------------------------/ \--------------------------------------|
-------555555------888888-7-8-7----7--------------------------------|
-------------666666-------------10---10-9-666666--------------------|
-555555-----------------------------------------101010101010-888888-|

-----------------------------------------------------------|
-----------------------------------------------------------|
-----------------------------------------------------------|
----------__---------------1-4-1----__---------------1-4-1-|
---------/  \--*-*-*-3-0-3-------3-/  \--*-*-*-3-0-3------3|
-777777--1-4-1-0-1-4---------------1-4-1-0-1-4-------------|


                          Right side-------------------|
                          --_--------------_-----------|
                          -/ \------------/ \----------| 
                          7-8-7---7------4-5-4---4-----|     
                          -----10---10-9-------6---6-5 | 
                          -----------------------------|
                                 
----------------------------_--------------------------|
---------------------------/ \-------------_-----------|
--------------------------5-7-5---5-------/ \----------|
-------555555------888888-------8---8-7--7-8-7---7-----|
-------------666666---------------------------10---10-9|
-555555------------------------------------------------|

-----------------------------------------------------|
-----------------------------------------------------|
-----------------------------------------------------|
-------------7---5--4-------10-8-7-----13-12-10------|
-*-***-*-*-*--**--*---*-*-*---------*----------13-12-|
-4-444-4-4-4--44--4---7-7-7--------10----------------|

--------------------------------------------------------------------|
----------------------------_---------------------------------------|
---------------------------/ \--------------------------------------|
-------555555------888888-7-8-7-pm-7--*-*---------------------------|
-------------666666-------------10---10-9-666666-------------999999-|
-555555-----------------------------------------101010101010--------|

------------------------------------|
------------------------------------|
------------------------------------|
888888-7***-7-**--10--*-*-*-10--*-*-|
--------999---99-----121212----1212-|
------------------------------------|

--------------------------------------------------------------------|
----------------------------_---------------------------------------|
---------------------------/ \--------------------------------------|
-------555555------888888-7-8-7----7--------------------------------|
-------------666666-------------10---10-9-666666--------------------|
-555555-----------------------------------------101010101010-888888-|

-----------------------------------------------------------|
-----------------------------------------------------------|
-----------------------------------------------------------|
----------__---------------1-4-1----__---------------1-4---|
---------/  \--*-*-*-3-0-3-------3-/  \--*-*-*-3-0-3-------|
-777777--1-4-1-0-1-4---------------1-4-1-0-1-4-------------|


                          Right side-------------------|
                          --_--------------_-----------|
                          -/ \------------/ \----------| 
                          7-8-7---7------4-5-4---4-----|     
                          -----10---10-9-------6---6-5 | 
                          -----------------------------|
                                 
-------------------------L---_-------------------------|
---------------------------/ \-------------_-----------|
--------------------------5-7-5---5-------/ \----------|
-------555555------888888-------8---8-7--7-8-7---7-----|
-------------666666---------------------------10---10-9|
-555555------------------------------------------------|

-----------------------------------------------------|
-----------------------------------------------------|
-----------------------------------------------------|
-------------7---5--4-------10-8-7-------------------|
-*-***-*-*-*--**--*---*-*-*---------*--*--*--9-------|
-4-444-4-4-4--44--4---7-7-7--------10-12-13----------|


Riff B
0:46-0:58,2:29-2:41
-----------------------------------------------------------------------|
-----------------------------------------------------------------------|
------------7-------------------7777-------------2-----------------3333|
------------8-------------------8888-------------3-----------------5555|
*-***-*-*-*-5-------------------5555-*-***-*-*-*--*-***------------6666|
5-555-5-5-5-5-5-555-5-5-5-5-5-5-5555-1-111-1-1-1--1-111-3-3-3-3-3-3----|

------------------------------------------------------------------------|
------------------------------------------------------------------------|
------------7-------------------7777-------------2-----------------3|3|3|
------------8-------------------8888-------------3-----------------5|5|5|
*-***-*-*-*-5-------------------5555-*-***-*-*-*--*-***------------6|6|6|
5-555-5-5-5-5-5-555-5-5-5-5-5-5-5555-1-111-1-1-1--1-111-3-3-3-3-3-3-----|

Riff C Left side
0:58-1:24,2:42-2:55
          _                  _             
         / \                / \                 _              
L-------5-6-5--------------5-6-5---------------/ \-------------------------------|
----*-8-------6--8-6---*-8-------6--8-7-------6-8-6------------------------------|
--*-7----------------*-7------------------*-7-------7-8-7------------------------|
--5------------------5------------------*-8--------------------------------------|
----------------------------------------5-----------------*-***-*-*-*-*-*-*-*-*-*|
----------------------------------------------------------3-333-3-3-3-4-4-4-4-4-4|
         _                  _
        / \                / \                  _
-------5-6-5--------------5-6-5-------------- -/ \----------------_-------|
----*-8-------6--8-6---*-8-------6--8-7-------6-8-6--------------/ \------|
--*-7----------------*-7------------------*-7-------7-8-7-/-7-7-5-7-5-----|
--5------------------5------------------*-8---------------------------7---|
----------------------------------------5---------------------------------|
--------------------------------------------------------------------------|

Riff C Right Side

R------------------------------------------_--------------------------------|
------------------------------------------/ \-------------------------------|
-------------8-7------------2-3-2--------2-3-2---5-3------------------------|
-------5-7-8------------3-5--------------------3----------------------------|
-*-*-*------------*-*-*------------*-*-*-------------*-***-*-*-*-*-*-*-*-*-*|
-5-5-5------------5-5-5------------1-1-1-------------3-333-3-3-3-4-4-4-4-4-4|

R------------------------------------------_--------------------------------|
------------------------------------------/ \-------------------------------|
-------------8-7------------2-3-2--------2-3-2---5-3------------------------|
-------5-7-8------------3-5--------------------3--------------_-------------|
-*-*-*------------*-*-*------------*-*-*---------------------/ \------------|
-5-5-5------------5-5-5------------1-1-1--------------/8-8--7-8-7-4---------|

Riff D Left side 
1:24-1:38

L----------------------------------------------------------------------------|
---------------------______---------------------______--------------///------|
--------------------/      \-------------------/      \----------2/4/6-------|
---___-------------5-6-10-6-0-------___-------5-6-10-6-0----------------7----|
--/   \--*********------------***--/   \--***------------*******-------------|
-3-7-3-0-000000000------------000-3-7-3-0-000------------0000000-------------|


Right side
-----------------------------------------------------------------------------|
---------------------______---------------------______-----------------------|
--------------------/      \-------------------/      \----------------------|
---___-------------5-6-10-6-0-------___-------5-6-10-6-0---------------------|
--/   \--*********------------***--/   \--***------------*******------///----|
-3-7-3-0-000000000------------000-3-7-3-0-000------------0000000--5/7/8---4--|

Riff E both gtrs 1:37-1:50,3:37-4:01
-----------------------------------------------------------------------------|
---------------------______---------------------______-----------------------|
--------------------/      \-------------------/      \----------------------|
---___-------------5-6-10-6-0-------___-------5-6-10-6-0---------*-****-*-*--|
--/   \--*********------------***--/   \--***------------*******-0-0000-4-4-4|
-3-7-3-0-000000000------------000-3-7-3-0-000------------0000000-1-1111-4-4-4|


----------------------------------------------------------------------------|
---------------------______---------------------______----------------------|
--------------------/      \-------------------/      \---------------------|
---___-------------5-6-10-6-0-------___-------5-6-10-6-0---------*-****-*---|
--/   \--*********------------***--/   \--***------------*******-0-0000-4--4|
-3-7-3-0-000000000------------000-3-7-3-0-000------------0000000-1-1111-4--4|

 riffs repeat





rythm gtr during solo

---------------------------------------------------|
---------------------------------------------------|
------------7-----------7777--------2----------3333|
------------8-----------8888--------3----------5555|
-----555555-5-555555555-5555-111111-1-1113333336666|
-----555555-5-555555555-5555-111111-1-111333333----|

-----------------------------------8-----------7-7-7-7-|
-----------------------------------10----------8-8-8-8-|
------------7-----------7777-------12----------10101010|
------------8-----------8888---------------------------|
-----555555-5-555555555-5555-888888--888777777---------|
-----555555-5-555555555-5555-888888--888777777---------|


Riff F left side 3:20-3:33
           __                   __                  __
          /  \                 /  \                /  \
---------8-10-8---------------8-10-8--------------8-10-8------|
----*-10--------10-11----*-10--------10-11----*-10-------10---|
-*-10-----------------*-10-----------------*-10---------------|
-8--------------------8--------------------8------------------|
--------------------------------------------------------------|
--------------------------------------------------------------|
         _               _               _
        / \             / \             / \
-------5-6-5-----------5-6-5-----------5-6-5------|
---*-6-------6-8---*-6-------6-8---*-6-------6----|
-*-7-------------*-7-------------*-7--------------|
-5---------------5---------------5----------------|
--------------------------------------------------|
--------------------------------------------------|
            __                       ___                     __
           /   \                    /   \                   /  \
----------12-13-12----------------12-13-12----------------12-13-12------|
-----*-15----------13-15-----*-15----------13-15-----*-15----------13-15|
--*-14--------------------*-14--------------------*-14------------------|
-12----------------------12----------------------12---------------------|
------------------------------------------------------------------------|
------------------------------------------------------------------------|
          __ 
         /  \
---------8-10-8-------------------------------------|
----*-10--------10-11-----10-7---7------------------|
-*-10--------------------------8---8----8------8\---|
-8-----------------------------------10---10-7------|
----------------------------------------------------|
----------------------------------------------------|

Riff F right side
         _               _              _ 
        / \             / \            / \ 
-------5-6-5-----------5-6-5----------5-6-5-------|
---*-8-------6-8---*-8-------6-8---*-8------6-----|
-*-7-------------*-7-------------*-7--------------|
-5---------------5---------------5----------------|
--------------------------------------------------|
--------------------------------------------------
|

         _               _               _  
--------/ \-------------/ \-------------/ \-------|
-------6-8-6-----------6-8-6-----------6-8-6------|
---*-7-------7-8---*-7-------7-8---*-7-------7----|
-*-8-------------*-8-------------*-8--------------|
-5---------------5---------------5----------------|
--------------------------------------------------|

        / \             / \            / \ 
-------5-6-5-----------5-6-5----------5-6-5-------|
---*-8-------6-8---*-8-------6-8---*-8------6-----|
-*-7-------------*-7-------------*-7--------------|
-5---------------5---------------5----------------|
--------------------------------------------------|
--------------------------------------------------
|
         _
--------/ \---------------------------------|
-------6-8-6--------------------------------|
---*-7-------7-8------3-----------------ph)-|
-*-8--------------------5-2-5-2---2-----3---|
-5------------------------------4---4-2-----|
--------------------------------------------|

left interlude
------------------------------------------------------------------|
------------------------------------------------------------------|
------------------------------------------------------------------|
---___------------------------------------------------------------|
--/   \--***********-harmonics -start on 2nd fret and end near 7th|
-3-7-3-0-00000000000----------------------------------------------|

Riff E repeats slight variation at end



End lft
----------------------------|
----------------------------|
----------------------------|
---_---------------1-4-1----|
--/ \--*-*-*-3-0-3-------3--|
-1-4-1-0-1-4----------------|

end right
----------------------------|
----------------------------|
----------------------------|
---_---------------4-7-4----|
--/ \--*-*-*-6-3-6-------6--|
-3-7-3-0-3-7----------------|
Добавлено: 07.04.2012
Другие материалы по этой песне:
  • Аккорды и текст

Страница создана 07.04.2012
http://primanota.ru/conducting-from-the-grave/nevermore-chords.htm
Привет, Гость.
Предлагаем пройти революционный курс по гитаре.
Подарок от PrimaNota.Ru, забирай!