PrimaNota.ru - самый крупный в мире бесплатный архив песенных текстов, аккордов, табулатур и нот


Conducting From The Grave - Improper Burial - текст песни, таба, видео

Регистрация Запомнить меня
Войти через:  Facebook Google Twitter Vk Yandex Mail.ru

Conducting From The Grave - Improper Burial - текст песни, таба, видео

Печатать
Просмотров: 119
                                 IMPROPER BURIAL
                    As recorded by Conducting from the Grave
                    (From the 2005 EP TRIALS OF THE FORSAKEN)
                          www.conductingfromthegrave.com

Guitar part by John - Conducting from the grave

John from CFTG gave me these tabs, Its such a great song i asked him if i could
put em on the net for you guys and here they are, have fun. - Cliff Guthrie - cliff4jax@bellsouth.net

Gtr II (C# G# C# F# A# D#) 

  Q=270
  Gtr I
  PM
  Q  H.
|---------|
|---------|
|---------|
|---------|
|-0--0----|
|-0--0----|


        PM  PM  PM   PM    PM   PM  PM   PM  PM   PM  PM       PM   PM
      E E E E E E  E E E E E  E E E E  E E E E  E E E E   E  E E  E E E   Q
||----------------------------------------------------------------------------||
||o--------------------------------------------------------------------------o||
||----7-------9---10---------10---9--------9---10---9----12p10---10---9-------||
||--------8------------7h8------------10---------------------------------10---||
||o--------------------------------------------------------------------------o||
||------0---0---0----0-----0----0---0----0---0----0---0--------0----0---------||


    PM|   PM  PM   PM|   PM   PM     PM
                                               |-3-|      |-3--|      |-3-|
  E E E E E E E E  E E E E  E E E E  E E E E E E E E E  E E E  E E E  E E E E
|------------------------------------------------------------------------------|
|------------------------------------------------------------------------------|
|-7----------------------------------------------------------------------------|
|-------8---7---8------7--------7------3---2---------2-----------7---10p8p7----|
|--------------------------10-----8------5---3-1h3h5----3-7h8h10---8--------8--|
|---0-0---0---0----0-0---0----0------0-----------------------------------------|


  E E  E E E E  E Q
|--------------------|
|--------------------|
|------------9-10-9--|
|-7-8-10-8-7---------|
|--------------------|
|--------------------|


      PM  PM  PM   PM     PM   PM  PM    PM  PM   PM  PM       PM   PM
    E E E E E E  E E  E E E  E E E E  E  E E E  E E E E  E   E E  E E E  Q
||---------------------------------------------------------------------------||
||o-------------------------------------------------------------------------o||
||--7-------9---10----------10---9---------9---10---9---12p=10---10---9------||
||------8-------------7h8------------10---------------------------------10---||
||o-------------------------------------------------------------------------o||
||----0---0---0----0------0----0---0-----0---0----0---0--------0----0--------||


    PM  PM  PM   PM    PM   PM  PM
  E E E E E E  E E E E E  E E E E  W
|-------------------------------------------|
|-------------------------------------------|
|-7-------9---10---------10---9-------------|
|-----8------------7h8------------10--------|
|-------------------------------------------|
|---0---0---0----0-----0----0---0-----------|


    E E E Q E E Q  E E Q E Q E E   E Q  E E
||------------------------------------------|
||o-----------------------------------------|
||--------5------------5-------------7------|
||--5-7-8---8-7-5--7-8---8-7-7-8--10---10-8-|
||o-----------------------------------------|
||------------------------------------------|


                    TPTPTP TP
                             |-3-|
  Q E  E Q  E Q     Q Q Q  Q E E E E  E E  E E  E
|----------------||-------------------------------|
|---------------o||-------------------------------|
|--------7-------||-7---9-10---------10-9----9-10-|
|-7-8-10---10-8--||---8------7h8p7-7------10------|
|---------------o||-------------------------------|
|----------------||-------------------------------|


  PM|   PM    PM  PM    PM  PM
  E E E E E E E E E E E E E E
|-----------------------------|
|-----------------------------|
|-----------------------------|
|-------------------------8---|
|-----8---7h8---5---4h5-------|
|-0-0---0-----0---0-----0---0-|


         TP TP TP TP
                     |--3--|
  E E    Q  Q  Q  Q  E  E  E  E  E  E  E  E  E
|-----|----------------------------------------|
|-----|----------------------------------------|
|-----|-10----12-14-------------14-12----12-14-|
|-7h8-|----12-------12h14p12-12-------14-------|
|-----|----------------------------------------|
|-----|----------------------------------------|


   TP TP TP TP TP TP TP TP   TP TP TP TP
                                         |--3--|
   Q  Q  Q  Q  Q  Q  Q  Q    Q  Q  Q  Q  E  E  E  E  E
|-------------------------|----------------------------|
|-------------------------|----------------------------|
|-12-14-12-10-12-10-------|-10----12-14-------------14-|
|-------------------14-10-|----12-------12h14p12-12----|
|-------------------------|----------------------------|
|-------------------------|----------------------------|


              PM|   PM    PM   PM    PM  PM
   E  E  E  E E E E E E E E E  E E E E E E E E
|----------------------------------------------|
|----------------------------------------------|
|-12----12-14----------------------------------|
|----14--------------------------------8---7h8-|
|-----------------8---7h8---5----4h5-----------|
|-------------0-0---0-----0----0-----0---0-----|


     TP TP TP TP
                 |--3--|
     Q  Q  Q  Q  E  E  E  E  E  E  E  E  E
||-----------------------------------------|
||o----------------------------------------|
||--10----12-14-------------14-12----12-14-|
||-----12-------12h14p12-12-------14-------|
||o----------------------------------------|
||-----------------------------------------|


   TP TP TP TP
               |--3--|
   Q  Q  Q  Q  E  E  E  E  E  E  E  Q
|--------------------------------------||
|-------------------------------------o||
|-12----12-15-14h15p14-12-14-12--------||
|----14-------------------------15-14--||
|-------------------------------------o||
|--------------------------------------||


  Q=245
  PM|   PM    PM|   PM    PM|       PM|   PM
  E E E E E E E E E E E E E E Q     E E E E E E
|-------------------------------||--------------|
|-------------------------------||o-------------|
|-------------------------------||--------------|
|-------------------------------||--------------|
|-----8---7h8-----5---4h5-------||o-----8---7h8-|
|-0-0---0-----0-0---0-----0-0---||--0-0---0-----|


  PM  PM    PM  PM    PM|   PM    PM  PM
  E E E E E E E E E E E E E E E E E E E E E   H
|-------------------------------------------------||
|------------------------------------------------o||
|-------------------------------------------------||
|-------------7---7h8-----------------------------||
|---5---4h5---------------8---7h8---5---4h5--[4]-o||
|-0---0-----0---0-----0-0---0-----0---0-----------||
  E


  PM|    PM     PM   PM  PM
  E E  E E E  E E E  E E E  E
|-----------------------------|
|-----------------------------|
|-----------------------------|
|-----------------8----7------|
|-----10---8h10------------10-|
|-7-7----7------7----7---7----|


  PM   PM|   PM    PM  PM  PM  PM    PMPM  PM    PM  PM    PM  PM
  E Q  E E E E E E E E E E E E E E   E E E E E E E E E E E E E E E E
|----------------------------------|----------------------------------|
|----------------------------------|----------------------------------|
|----------------------------------|----------------------------------|
|--------------------7---5---------|-------------------------7---7h8--|
|---8------8---7h8-----------8---7-|-----8---7h8---5---4h5------------|
|-7----5-5---5-----5---5---5---5---|-0-0---0-----0---0-----0---0------|
                                     E


  PM PM  PM    PM  PM             PM|    PM     PM  PM  PM   PM   PM|   PM
  E  E E E E E E E E E E  H       E E  E E E  E E E E E E  E E Q  E E E E E E
|-----------------------------||----------------------------------------------|
|-----------------------------||o---------------------------------------------|
|-----------------------------||----------------------------------------------|
|-----------------------------||------------------8---7-----------------------|
|------8---7h8---5---4h5-[4]--||o-----10---8h10-----------10---8------8---7h8-|
|-0--0---0-----0---0----------||--7-7----7------7---7---7----7----5-5---5-----|
  H.


  PM  PM  PM  PM
  E E E E E E E Q
|------------------||
|-----------------o||
|------------------||
|---7---5----------||
|-----------8---7-o||
|-5---5---5---5----||


                                                       Q=270
  PM|   PM    PM  PM    PM  PM                           PM  PM  PM
  E E E E E E E E E E E E E E E E H.      W            E E E E E E  E
|--------------------------------------------------||-----------------|
|--------------------------------------------------||o----------------|
|--------------------------------------------------||--7-------9---10-|
|-------------------------7---7h8------------------||------8----------|
|-----8---7h8---5---4h5----------------------------||o----------------|
|-0-0---0-----0---0-----0---0----------------------||----0---0---0----|


  PM    PM   PM  PM    PM  PM   PM  PM       PM   PM            PM|   PM  PM
  E E E E  E E E E   E E E E  E E E E   E  E E  E E E  Q      E E E E E E E E
|----------------------------------------------------------||-----------------|
|---------------------------------------------------------o||-----------------|
|---------10---9---------9---10---9----12p10---10---9------||-7---------------|
|---7h8-------------10--------------------------------10---||-------8---7---8-|
|---------------------------------------------------------o||-----------------|
|-0-----0----0---0-----0---0----0---0--------0----0--------||---0-0---0---0---|


  PM|   PM   PM    PM
                             |-3-|     |-3--|      |-3-|
  E E E E  E E E E E E E E E E E E E E E E  E E E  E E E E  E E  E E E E  E Q
|------------------------------------------------------------------------------|
|------------------------------------------------------------------------------|
|----------------------------------------------------------------------9-10-9--|
|-----7--------7-----3---2---------2----------7---10p8p7----7-8-10-8-7---------|
|---------10-----8-----5---3-1h3h5---3-7h8h10---8--------8---------------------|
|-0-0---0----0-----0-----------------------------------------------------------|


      PM  PM  PM   PM     PM   PM  PM    PM  PM   PM  PM       PM   PM
    E E E E E E  E E  E E E  E E E E  E  E E E  E E E E  E   E E  E E E  Q
||---------------------------------------------------------------------------||
||o-------------------------------------------------------------------------o||
||--7-------9---10----------10---9---------9---10---9---12p=10---10---9------||
||------8-------------7h8------------10---------------------------------10---||
||o-------------------------------------------------------------------------o||
||----0---0---0----0------0----0---0-----0---0----0---0--------0----0--------||


        PM   PM      PM|
   E  E E  E E E  Q  E E
|------------------------||
|------------------------||
|-12p10---10---9---------||
|----------------10------||
|------------------------||
|-------0----0-------0-0-||


  Q=120
  E  E E  E  E E  E E  E  E E  E E  E  E E E  E E  E  E E  E  E E  E  E E  E  E  Q
|------------------------------------------------------------------------------------|
|-----------12-----------12-----------12-------------12------13------12---12S13-12---|
|------9-------9----9-------9----9-------9------9-------9-------9-------9------------|
|---10---10------10---10------10---10--------10---10------10------10-----------------|
|-0----------------------------------------0-----------------------------------------|
|------------------------------------------------------------------------------------|


                            |-3--|
  E E E E  E E E E E E  E E E  E E E  E E E E E  E E E   Q  Q S  S E  E E  E
|-------------------------------------------------------------------------------|
|-------------------------------------------------------------------------------|
|-----9---10-----9-----10---9h10p9-9--------9---10-----/12-10-9h10p9----9-------|
|---7---7----7-----7------7----------10---7---7----7-----------------10---10----|
|-8------------8-----8------------------8------------8--------------------------|
|-------------------------------------------------------------------------------|


                                                                    |-3--|
   E  E E  E E  E E  Q  E E  E E  E Q  E  E E  E E  E E  Q  E E  E  E  E E  E
|--------------------------------------------------------------------------------|
|--------------------------------------------------------------------------------|
|-------9----9S10-9-------9----9S10-9-------9----9S10-9-------9----12-10-9-------|
|----10---10-----------10---10-----------10---10-----------10---10---------10----|
|-12----------------12----------------12----------------12-----------------------|
|--------------------------------------------------------------------------------|


  E  E E  E  E E  E E  E  E E  E  E E E  E E  E  E E  E  E E  E  E E  E  E  Q
|--------------------------------------------------------------------------------|
|-----------12-----------12------12-------------12------13------12---12S13-12----|
|------9-------9----9-------9-------9------9-------9-------9-------9-------------|
|---10---10------10---10------10--------10---10------10------10------------------|
|-0-----------------------------------0------------------------------------------|
|--------------------------------------------------------------------------------|


                            |-3--|
  E E E E  E E E E E E  E E E  E E E  E E E E E  E E E   Q  Q S  S E  E E  E
|-------------------------------------------------------------------------------|
|-------------------------------------------------------------------------------|
|-----9---10-----9-----10---9h10p9-9--------9---10-----/12-10-9h10p9----9-------|
|---7---7----7-----7------7----------10---7---7----7-----------------10---10----|
|-8------------8-----8------------------8------------8--------------------------|
|-------------------------------------------------------------------------------|


   E  E E  E E  E E  E  E  E  E  E  E  E  E  E  E  E  E  E  E  E  E  E  E  E  E  E  E  E  E  E
|-------------------------------------------------------------------------------------------------|
|-------------------------------------------------------------------------------------------------|
|-------9----9----9----10----10----10----10-----9--9--9--9--9--9--9--9--9--9--9--9--9--9--9--9----|
|----10---10---10---10----10----10----10----10-10-10-10-10-10-10-10-10-10-10-10-10-10-10-10-10----|
|-12-------------------------------------------12-12-12-12-12-12-12-12-13-13-13-13-13-13-13-13----|
|-------------------------------------------------------------------------------------------------|


    Q=150
    PM--------|   PM|   PM|   PM|   PM--------|
                |-3-| |-3-| |-3-|                             |-3-|
    Q Q Q Q Q Q E E E E E E E E E Q Q Q Q Q Q Q S S S S S S S S S S S S S S S S
||------------------------------------------------------------6h9p6--------------||
||o---------------------------------------------------------8-------8---8-------o||
||------------------------------------------------------6h9-----------9---9-6----||
||--------------------------------5-----------------5h8-----------------------8--||
||o-0-3-2-1-4-3-5-----5-----4-------0-3-2-1-4-3-4h7-----------------------------o||
||--0-3-2-1-4-3---6-0---6-0---5-0---0-3-2-1-4-3----------------------------------||


                    |-3--|
  S  S S  S S  S  S S  S S  S  S  S  S S  W
|-------------------9h12p9------------------|
|----------------11--------11----11---------|
|-----------9h12--------------12----12-9----|
|------8h11------------------------------11-|
|-7h10--------------------------------------|
|-------------------------------------------|


  S S S S S S S S S S S S S S S S S S S S S S S S
|-------------------------------------------------|
|-------------------------------------------------|
|-------------------------------------------------|
|-------------------------------------------------|
|-0-0-0-0-3-3-3-3-2-2-2-2-1-1-1-1-4-4-4-4-3-3-3-3-|
|-0-0-0-0-3-3-3-3-2-2-2-2-1-1-1-1-4-4-4-4-3-3-3-3-|


  TPTPTPTP                                                TPTPTPTP PM
  Q Q Q Q S S S S S S S S S S S S S S S S S S S S S S S S Q Q Q Q  Q H.
|-----------------------------------------------------------------------|
|-----------------------------------------------------------------------|
|-----------------------------------------------------------------------|
|-----------------------------------------------------------------------|
|-5---4---0-0-0-0-3-3-3-3-2-2-2-2-1-1-1-1-4-4-4-4-3-3-3-3-5---7----0----|
|---6---5-0-0-0-0-3-3-3-3-2-2-2-2-1-1-1-1-4-4-4-4-3-3-3-3---6---8--0----|


  Q=120
   TPTP TP TP TP TP TPTP TPTP TP TP TPTP TPTP TP TP TP TP TPTP TPTP TPTP TP TP
   Q E  E  E  E  E  E Q  E E  E  E  E E  Q E  E  E  E  E  E Q  E E  E E  E  E
|--------------------------------------------------------------------------------|
|--------------------------------------------------------------------------------|
|-10-9----10------------10-9----------9-10-9----10------------10-9----9-10-12----|
|------12----12-10-12-8------12-10-12--------12----12-10-12-8------12------------|
|--------------------------------------------------------------------------------|
|--------------------------------------------------------------------------------|


   |--3--|  |--3--|  |--3--|  |--3--|  |-3--| |--3--| |--3--| |-3--|  |-3-| |-3--| |-3--| |-3-|
   S  S  S  S  S  S  S  S  S  S  S  S  S S  S S  S  S S  S  S S  S S  S S S S S  S S  S S S S S
|-13p10-------------------------------12p8---------------------------10p6--------------------------|
|-------11---------------------------------10-----------------------------8------------------------|
|----------10----------------10h12p10---------9---------------9h10p9--------7-------------7h8p7----|
|-------------12----------12--------------------10---------10-----------------8---------8----------|
|----------------13-10h13--------------------------12-8h12----------------------10-6h10------------|
|--------------------------------------------------------------------------------------------------|


   |-3--| |--3--| |--3--| |-3--|  |--3--|  |--3--|  |--3--|  |--3--|  |-3-| |-3--| |-3--| |-3-|
   S S  S S  S  S S  S  S S  S S  S  S  S  S  S  S  S  S  S  S  S  S  S S S S S  S S  S S S S S
|-12p8---------------------------13p10-------------------------------10p6------------------------|
|------10------------------------------11---------------------------------8----------------------|
|---------9---------------9h10p9----------10----------------10h12p10--------7-------------7h8p7--|
|-----------10---------10--------------------12----------12-------------------8---------8--------|
|--------------12-8h12--------------------------13-10h13------------------------10-6h10----------|
|------------------------------------------------------------------------------------------------|


   |-3--| |-3--|  |-3--| |-3--|
   S S  S S  S S  S S  S S  S S
|-10p6----6------10p6----6------|
|------10---10-6------10---10-6-|
|-------------------------------|
|-------------------------------|
|-------------------------------|
|-------------------------------|


    Q=220
    TP        TPTP TPTP        TP TPTP        TP
        |-3-|           |-3-|         |-3--|      |-3-|
    H.  E E E H Q  Q H. E E E  Q  Q Q E  E E  H.  E E E
||------------------------------------------------------|
||o-----------------------------------------------------|
||--7--10p8p7--------5--5h7h8-12-10-8-8h10p8--7--10p8p7-|
||------------8-7-10------------------------------------|
||o-----------------------------------------------------|
||------------------------------------------------------|


  TP   TP  TP TP            TP TP TP
                      |-3-|
  H    Q   Q  H.      E E E H  Q  Q
|-------------------------------------||-|
|------------------------------------o||-|
|-------------5-------5h7h8-3--2------||-|
|-8----7--10----------------------3---||-|
|------------------------------------o||-|
|-------------------------------------||-|


    Q=270
      PM  PM  PM   PM     PM   PM  PM    PM  PM   PM  PM       PM   PM
    E E E E E E  E E  E E E  E E E E  E  E E E  E E E E  E   E E  E E E  Q
||---------------------------------------------------------------------------||
||o-------------------------------------------------------------------------o||
||--7-------9---10----------10---9---------9---10---9---12p=10---10---9------||
||------8-------------7h8------------10---------------------------------10---||
||o-------------------------------------------------------------------------o||
||----0---0---0----0------0----0---0-----0---0----0---0--------0----0--------||


    PM|   PM  PM  PM|   PM   PM    PM
                                             |-3-|     |-3--|      |-3-|
  E E E E E E E E E E E E  E E E E E E E E E E E E E E E E  E E E  E E E E  E E  E E E E  E Q
|------------------------------------------------------------------------------------------------|
|------------------------------------------------------------------------------------------------|
|-7------------------------------------------------------------------------------------9-10-9----|
|-------8---7---8-----7--------7-----3---2---------2----------7---10p8p7----7-8-10-8-7-----------|
|-------------------------10-----8-----5---3-1h3h5---3-7h8h10---8--------8-----------------------|
|---0-0---0---0---0-0---0----0-----0-------------------------------------------------------------|


  W  W
|------|
|------|
|------|
|------|
|-8-10-|
|-8-10-|


    Q=240
                                                               |--3--|
    E E E E E E E E   Q  Q Q  Q E E  E E E  E E E  E  E  E  E  E  E  E  E  E     3x
||-------------------------------------------------------------------------------||
||o-----------------------------------------------------------------------------o||
||---------------------------------------9---------------------------------------||
||------7---7h8-5h7-/12-10-8-10-----10-----10-----------12----12h14p12-----------||
||o-5-8---8-----------------------8----8------8------10----10----------10-------o||
||------------------------------8---------------8-10----------------------10-----||


  E E E E E E E E   Q  Q Q  Q  W   W  E E E E E E E E E E E  E  E  E E  E
|---------------------------------------------8p5----------------------------|
|-----------------------------------------6p5-----6p5-----8S10-12p10-8h10----|
|------------------------------9--------7---------------9--------------------|
|-----7---7h8-5h7-/12-10-8-10-10--12--5---------------7----------------------|
|-5-8---8----------------------8--10-----------------------------------------|
|------------------------------8--10-----------------------------------------|


  E  E  E  E E  E  E  E  E  E  E  E  E  E  E  E W
|------------8h10-13p12------------------------------|
|------10S11------------------11S13-15p13-11-10------|
|---10---------------------12------------------------|
|-8---------------------10---------------------------|
|-----------------------------------------------0----|
|-----------------------------------------------0----|
Добавлено: 30.05.2012
Другие материалы по этой песне:

Страница создана 29.03.2012
http://primanota.ru/conducting-from-the-grave/improper-burial-chords.htm
Привет, Гость.
Предлагаем пройти революционный курс по гитаре.
Подарок от PrimaNota.Ru, забирай!