PrimaNota.ru - самый крупный в мире бесплатный архив песенных текстов, аккордов, табулатур и нот


Conducting From The Grave - Her Poisoned Tongues - таба, видео

Регистрация Запомнить меня
Войти через:  Facebook Google Twitter Vk Yandex Mail.ru

Conducting From The Grave - Her Poisoned Tongues - таба, видео

Печатать
Просмотров: 115
Conducting from the Grave

Her Poisoned Tongues
c-g-c-f-a-d

RIFF 1 RIGHT SIDE REPEATS TWICE
----__-------__----------------------------------|
---/  \-----/  \----------_------_---------------|
--9-10-9---9-10-9---^----/ \----/ \--------------|
---------10-------10/12-7-8-7--7-8-7--^----------|
------------------------------8------8/10--------|
-------------------------------------------------|


-------------------------------------------------|
-------------------------------------------------|
---_-------_-------_-----------------------------|
--/ \-----/ \-----/ \----------------------------|
-7-8-7---7-8-7---7-8-10-*-*****-*-*****-*****----|
-------10-----10--------0-00000-0-00000-00000----|



--------------------------------------------------|
---------------------------------------------^----|
-------9-12-----6-9---------_---------------6-7-6-|
-------x-x------x-x--------/ \--------------x-x-x-|
-------7/10-----4/7-----*-4-5-7-5-4---------4/5-4-|
-11-11------8-8-----4-4-4-----------8-7-5-4-------|

|||||||||||||||||||||||||||||||||||||||||||||||||||||||||

RIFF 1 LEFT SIDE
---------------------------------------------------------|
---------------------------------------------------------|
------12-14------12-15----------_------------------------|
-------x--x-------x--x---------/ \-----------------------|
------10/12------10/13------*-5-7-8-*-*****-*-*****-*****|
-0-0---------8-8--------7-7-7-------0-00000-0-00000-00000|

---__-------__---------------------------------|
ph/  \---ph/  \----------__----------__--------|
-9-10-9---9-10-9--^---ph/  \------ph/  \-------|
--------11------11/14-11-12-11---11-12-11---^--|
------------------------------13----------13/16|
-----------------------------------------------|

----------------------------------------------------|
----------------------------------------------------|
----__--------__------------------------------------|
---/  \------/  \-----------------------------------|
-12-13-12--12-13-12--12-13-15------------------8-7-8|
---------15--------15----------15-14-12-11-8-7-8-7-8|
||||||||||||||||||||||||||||||||||||||||||||||||||||||||||


RIFF 2 RIGHT SIDE REPEATS TWICE
---__--------__--------------------------------------------------------------|
--/  \------/  \-------------------------_------_----------------------------|
-9-10-9----9-10-9---^-------------------/ \----/ \---------------------------|
--------10--------10/12----------------7-8-7--7-8-7--^-----------------------|
------------------------*-*-***-*-*-***------8------8/10-********************|
------------------------0-0-000-0-0-000------------------88888888101010107777|


------------------------------------------------------------------------|
----------------------------_-------------------------------------------|
---_--------_--------_-----/ \-----_-------------_----------------------|
--/ \------/ \------/ \---7-8-10--/ \-----_-----/ \---------------------|
-7-8-7----7-8-7----7-8-10--------7-8-10--/ \---7-8-10--****7--*-*-*-*10-|
-------10-------10----------------------7-8-10---------77777-1010101010-|

--------------------------------------------------------|
--------------------------------------15--14------------|
------------------------------15--14----------15--14----|
--------------------15---14-----------------------------|
--*--*-13-*12-*13-*----*-----*---*---*---*---*---*------|
-11-11---11--11--11---11----11--11--11--11--11--11------|

------------------------------------------------------------------|
------------------------------------------------------------------|
------------------------------------------------------------------|
------------------------------------------------------------------|
--*-*-*-*-8--*-*-*-*-7-****-5-****-4-5-4-1-3-*-*****-*-*****-*****|
-12121212-8-11111111-7-8888-5-7777-4-5-4-1-3-0-00000-0-00000-00000|

                           ending 2nd time   -----------------------|
                                             -----------------------|
                                             -----------------------|
                                             --let ring-----------*-|
                                             0--------------------0-|
                                             0--------------------0-|
|||||||||||||||||||||||||||||||||||||||||||||||||||||||||||||||||

RIFF 2 LEFT SIDE 
  __       __                            
--/  \-----/  \----------------------------------------------------------------------|
-8-10-8---8-10-8--^----------------------__----------__------------------------------|
--------9--------9/10-------------------/  \--------/  \-----------------------------|
--------------------------------------10-12-10----10-12-10---^-----------------------|
----------------------*-*-***-*-*-***----------12----------12/13-********************|
----------------------0-0-000-0-0-000----------------------------88888888101010107777|

------------------------------------------------------------------------|
----------------------------_-------------------------------------------|
---_--------_--------_-----/ \-----_-------------_----------------------|
--/ \------/ \------/ \---7-8-10--/ \-----_-----/ \---------------------|
-7-8-7----7-8-7----7-8-10--------7-8-10--/ \---7-8-10--****7--*-*-*-*10-|
-------10-------10----------------------7-8-10---------77777-1010101010-|

--------------------------------------------------------|
--------------------------------------15--14------------|
------------------------------15--14----------15--14----|
--------------------15---14-----------------------------|
--*--*-13-*12-*13-*----*-----*---*---*---*---*---*------|
-11-11---11--11--11---11----11--11--11--11--11--11------|

----------------------------------------------------------|
----------------------------------------------------------|
-----7------6------12------9------------------------------|
-****x-****-x-------x------x------------------------------|
-55555-4444-4-****-10-****-7-5-4-1-3-*-*****-*-*****-*****|
--------------8888----7777---5-4-1-3-0-00000-0-00000-00000|

                           ending 2nd time   -----------------------|
                                             -----------------------|
                                             -----------------------|
                                             --let ring-------------|
                                             0----------------------|
                                             0----------------------|
|||||||||||||||||||||||||||||||||||||||||||||||||||||||||||||||||||||
TAPPING PART LEFT SIDE
REPEATS 5 TIMES
------------------------------------------------------------------------------------------|
------------------------------------------------------------------------------------------|
----------------------------------------------T-^--T-^--T-^--T-^--T-^--T-^--T-^--T-^--T-^-|
-T-^--T-^--T-^--T-^--T-^--T-^--T-^--T-^--T-^--12-7-12-7-12-7-13-8-13-8-13-8-13-8-13-8-13-8|
-12-5-12-5-12-5-12-5-12-5-12-5-13-8-13-8-13-8---------------------------------------------|
------------------------------------------------------------------------------------------|

------------------------------------------------------------------------------------------|
------------------------------------------------------------------------------------------|
-T-^--T-^--T-^--T-^--T-^--T-^----------------------------------------------T-^--T-^--T-^--|
-12-7-12-7-12-7-11-8-11-8-11-8-T-^--T-^--T-^--T-^--T-^--T-^--T-^--T-^--T-^-12-7-12-7-12-7-|
-------------------------------12-5-12-5-12-5-12-5-12-5-12-5-13-8-13-8-13-8---------------|
------------------------------------------------------------------------------------------|

------------------------------------------------------------|
------------------------------------------------------------|
------------------------------------------------------------|
-T-^--T-^--T-^--T-^--T-^--T-^--T-^--T-^--T-^--T-^--T-^--T-^-|
-10-6-10-6-10-6-10-6-10-6-10-6-12-8-12-8-12-8-12-8-12-8-12-8|
------------------------------------------------------------|


5TH TIME THIS IS PLAYED INSTEAD OF 10^6+12^8 PART

-------------------------------------------------------|
-------------------------------------------------------|
---___________________-----________________________----|
--/                   \---/                        \---|
-6-8-6-8-6-8-6-8-6-8-6-8-8-10-8-10-8-10-8-10-8-10-8-10-|
-------------------------------------------------------|

RIGHT SIDE DURING TAPPING PART
---------------------------------------------------------|
---------------------------------------------------------|
---------------------------------------------------------|
---------------------------------------------------------|
-1-**-1-3-**-3-*-****-*-****-****---****-0-1-**-1-3-**-3-|
-1-11-1-3-33-3-0-0000-0-0000-0000---0000-0-1-11-1-3-33-3-|

--------------------------|
--------------------------|
--------------------------|
--------------------------|
---*-****-*-****-****-----|
---0-0000-0-0000-0000-----|

bOTH GTRS TWICE
------------------------------------------------------------------------------------------|
------------------------------------------------------------------------------------------|
------------------------------------------------------------------------------------------|
-*************************************************************************----------------|
-0---0-0-0-0--0--0----------------0---0-0-0--0---------------------0-0-0-0----1-**-1--3-**|
-0---0-0-0-0--0--0--00000-0-00000-0---0-0-0--0-00000-0-00000-00000-0-0-0-0----1-11-1--3-33|

INTERLUDE BOTH GTRS
--------------------------|
--------------------------|
------2---2---------------|
-3-----33---33-2-***-2-***|
-1-111---------3-333-4-444|
--------------------------|

RIFF 3 RIGHT 4 TIMES
-------------------------------------------------__-----------------_----------|
---------_--------------------------------------/  \---------------/ \---------|
--------/ \-------------__---------------------9-10-9---^---------2-3-2--^-----|
-------2-3-2--^--------/  \--*-*-*--------------------10/12-------------3/5----|
---***-------3/5-***--8-10-8-7-8-7-8-10---***8--------------***5-------------)-|
-0-000-----------000---------------8/10---8888--------------5555------------3--|


-------------------------------------------------__--------------------------------|
---------_--------------------------------------/  \--------------------_----------|
--------/ \-------------__---------------------9-10-9---^--------------/ \---^-----|
-------2-3-2--^--------/  \--*-*-*--------------------10/12-----------7-8-7-3-5--)-|
---***-------3/5-***--8-10-8-7-8-7-8-10---***8---------------*-*-*10------------8--|
-0-000-----------000---------------8/10---8888--------------10101010---------------|
|||||||||||||||||||||||||||||||||||||||||||||||||||||||||||||||||||||||||||||

LEFT HARMONY TWICE                       -     __
----------------------------------------------/  \--------------__----------|
---------_-------------_---------------------8-10-8--^---------/  \---^-----|
--------/ \-----------/ \---------------------------9/10------9-10-9-7-9---)|
-------5-7-5--^------7-8-7----7------------------------------------------10-|
---***-------7/8-***-------10---10-8-10-***8-------------***5---------------|
-0-000-----------000-----------------10-8888-------------5555---------------|

                                               __
----------------------------------------------/  \--------------__----------|
---------_-------------_---------------------8-10-8--^---------/  \---^-----|
--------/ \-----------/ \---------------------------9/10------9-10-9-7-9---)|
-------5-7-5--^------7-8-7----7------------------------------------------10-|
---***-------7/8-***-------10---10-8-10-***8-------------***5---------------|
-0-000-----------000-----------------10-8888-------------5555---------------|

INTERLUDE
--------|
--------|
--------|
-6-6-6--|
-4-4-4--|
--------|
RIFF 4 LEFT REPEATS
--------5---------------------------------------------------------|
----6-----6----------6--------6------------6----------------------|
--7---7-----7------7---7----6---6------7-----7---------7-------6--|
0---------------8---------7----------8---8-----8-----5---5---4---4|
-------------------------------------------------8----------------|
-----------------------------------8---------------5-------4------|

RIFF 4 RIGHT REPEATS
------------------------------------------------------------------------------------|
10-10101010101010-1111111111111111-15-151515151515--14141414141414148888888877777777|
xxxxxxxxxxxxxxxxxxxxxxxxxxxxxxxxxxxxxxxxxxxxxxxxxxxxxxxxxxxxxxxxxxxxxxxxxxxxxxxxxxxx|
7--777-7777777777/8-8-8-8-8-8-8-8-/12-121212121212-\11111111111111115555555544444444|
------------------------------------------------------------------------------------|
------------------------------------------------------------------------------------|

END OF RIFF 
-------------------------------------------------------------------|
-------------------------------------------------------------------|
-------------------------------------------------------------------|
------------------------------------------------------------*--*--*|
--*-*-*-*-8--*-*-*-*-7-****-5-****-4-5|-------0--let ring---0--0--0|
-12121212-8-11111111-7-8888-5-7777-4-5|-------0-------------0|-0|-0|



REPEATS BOTH GTRS
------------------------------------------------------------|
------------------------------------------------------------|
------------------------------------------------------------|
--**********************************************************|
--0-000-0--000-0--000-0-0-0---0-0-0-0-0-0---0-0-0-0-0--0--0-|
--0-000-0--000-0--000-0-0-0---0-0-0-0-0-0---0-0-0-0-0--0--0-|


--------------------------------------------------------------|
--------------------------------------------------------------|
---------------------------------_----------------------------|
--*************************-----/ \---------------------------|
--0-000-0--000-0--000-0-0-0--5-4-5-4---4--------------------)-|
--0-000-0--000-0--000-0-0-0----------8---8-7--8-7-5-4--5-4-1--|

HARMONY RIGHT
--------------------------------------------------------------|
--------------------------------------------------------------|
---------------------------------_----------------------------|
--*************************-----/ \---------------------------|
--0-000-0--000-0--000-0-0-0--8-7-8-7-5-7-5-4--5-4------------)|
--0-000-0--000-0--000-0-0-0-----------------------8-7-8--7--4-|

END
----------------------------|
----------------------------|
----------------------------|
-*-***-*--***-*--***-*-*-*--|
-0-000-0--000-0--000-0-0-0--|
-0-000-0--000-0--000-0-0-0--|
Добавлено: 06.03.2012
Другие материалы по этой песне:
  • Аккорды и текст

Страница создана 06.03.2012
http://primanota.ru/conducting-from-the-grave/her-poisoned-tongues-chords.htm
Привет, Гость.
Предлагаем пройти революционный курс по гитаре.
Подарок от PrimaNota.Ru, забирай!