PrimaNota.ru - самый крупный в мире бесплатный архив песенных текстов, аккордов, табулатур и нот


Conducting From The Grave - Burdens Of A Dying World - таба, видео

Регистрация Запомнить меня
Войти через:  Facebook Google Twitter Vk Yandex Mail.ru

Conducting From The Grave - Burdens Of A Dying World - таба, видео

Печатать
Просмотров: 66
CONDUCTING FROM THE GRAVE
BURDENS OF A DYING WORLD
CGCFAD

*=PALM MUTE
)(=BEND /UNBEND
PH=PINCH HARMONIC
/\=HAMMERON\PULLOFF
///= TREMELO PICKED


TABBED BY-andherembrace

TAB INCLUDES WHOLE SONG WITH BOTH GTR PARTS


0:00
L
-----------------------------------------------------------------------------------|
-----------------------------------------------------------------------------------|
-------------------------------p---------------------------------------------------|
-------------------------1-----h)-----------------------------1-----p--------------|
-1-*-*-*-4-*-*-*-0-------1-*-*-3--0-------***-1-1-***-3-3-1-3-1-*-*-h)-0-----------|
---4-3-4---7-5-7-0---------4-1----0-------000-1-1-000-3-3-1-3---3-1-3--0-----------|
R
-----------------------------------------------------------------------------------|
-----------------------------------------------------------------------------------|
-----------------------------------------------------------------------------------|
-------------------------1-----P------------------------------1-----p--------------|
-1-*-*-*-4-*-*-*-0-------1-*-*-H)-0-------***-1-1-***-3-3-1-3-1-*-*-h)-0-----------|
---4-3-4---7-5-7-0---------4-1-3--0-------000-1-1-000-3-3-1-3---3-1-3--0-----------|



0:12
L
------------------------------------------------------------------------------------------------|
------------------------------------------------------------------------------------------------|
-------------------------------p--------------------------------------------__------__----------|
-------------------------1-----h)------------------------------------------/  \----/  \---------|
-1-*-*-*-4-*-*-*-0-------1-*-*-3--0-------***-1-1-***-3-3-***-3-3-***-6-6-8-12-8**7-10-7**-4/7-7|
---4-3-4---7-5-7-0---------4-1----0-------000-1-1-000-3-3-000-3-3-000-6-6-------00------00------|
R
------------------------------------------------------------------------------------------------|
------------------------------------------------------------------------------------------------|
---------------------------------------------------------------------------_--------_-----------|
------------------------1-----P-------------------------------------------/ \------/ \----------|
1-*-*-*-4-*-*-*-0-------1-*-*-H)-0-------***-1-1-***-3-3-***-3-3-***-6-6-5-8-5-**-4-7-4-**-1/4-4|
--4-3-4---7-5-7-0---------4-1-3--0-------000-1-1-000-3-3-000-3-3-000-6-6-------00-------00------|



0:24
L
--------------------------------------------------------------------------|
--------------------------------------------------------------------------|
----------------------------------------------------------------_---------|
-----------------------------------_-----------------__--------/ \--------|
-5-*-*-*-*-*-*-*-5\4-*-*-*-*-*-*--/ \--*-*-*-*-*-*--/  \--*-*-4-7-4-*-*---|
---8-5-0-5-0-5-8-----0-0-0-0-0-0-4-7-4-0-0-0-0-0-0-8-11-8-0-0-------0-0---|
R
-------------------------------------------------------------------------|
-------------------------------------------------------------------------|
---------------------------------------------------------------_---------|
-----------------------------------_-----------------_--------/ \--------|
-5-*-*-*-*-*-*-*-5\4-*-*-*-*-*-*--/ \--*-*-*-*-*-*--/ \--*-*-1-4-1-*-*---|
---8-5-0-5-0-5-8-----0-0-0-0-0-0-1-4-1-0-0-0-0-0-0-4-7-4-0-0-------0-0---|



0:28
L
---------------------------------------------------------------|
---------------------------------------------------------------|
----------------------^-------------------^--------^-----------|
------------------^--5-8--------------^--8-5-----11-8-------14-|
-5-*-*-*-*-*-*-*-4-7-----*-*-*-*--^--4-7-----7/10-----10/13----|
---8-5-0-5-0-5-8---------0-0-0-0-5-8---------------------------|
R
---------------------------------------------------------------|
---------------------------------------------------------------|
----------------------^-------------------^-------^------------|
------------------^--5-8--------------^--5-2-----8-5------11---|
-5-*-*-*-*-*-*-*-4-7-----*-*-*-*--^--1-4-----4/7-----7/10------|
---8-5-0-5-0-5-8---------0-0-0-0-2-5---------------------------|


0:31
L
----------------------------------------------------------------------------|
----------------------------------------------------------------------------|
--------------------------------------------------------_---------__--------|
-----------------------------------_---------__--------/ \-------/  \-------|
-5-*-*-*-*-*-*-*-5\4-*-*-*-*-*-*--/ \--*-*--/  \--*-*-4-7-4-*-*-7-10-7-*-*--|
---8-5-0-5-0-5-8-----0-0-0-0-0-0-4-7-4-0-0-8-11-8-0-0-------0-0--------0-0--|
R
---------------------------------------------------------------------------|
---------------------------------------------------------------------------|
-------------------------------------------------------_--------- _--------|
-----------------------------------_---------_--------/ \--------/ \-------|
-5-*-*-*-*-*-*-*-5\4-*-*-*-*-*-*--/ \--*-*--/ \--*-*-1-4-1-*-*--4-7-4-*-*--|
---8-5-0-5-0-5-8-----0-0-0-0-0-0-1-4-1-0-0-4-7-4-0-0-------0-0--------0-0--|



0:35
L
-----------------------------------------------------------|
-----------------------------------------------------------|
-------------------------------------------------------P---|
-------------------------------------------------1-----H)--|
-5-*-*-*-*-*-*-*-5\4-*-*-*-*-*-*-4---*-*-*-*-*-*-1-*-*-3---|
---8-5-0-5-0-5-8-----7-7-7-7-7-7---4-4-4-4-4-4-4---4-1-----|
R
-----------------------------------------------------------|
-----------------------------------------------------------|
-----------------------------------------------------------|
-------------------------------------------------1-----P---|
-5-*-*-*-*-*-*-*-5\4-*-*-*-*-*-*-4---*-*-*-*-*-*-1-*-*-H)--|
---8-5-0-5-0-5-8-----7-7-7-7-7-7---4-4-4-4-4-4-4---4-1-3---|



0:38
L
--------------------------------------------------------------------------|
--------------------------------------------------------------------------|
----------------------------------------------------------------_---------|
-----------------------------------_-----------------__--------/ \--------|
-5-*-*-*-*-*-*-*-5\4-*-*-*-*-*-*--/ \--*-*-*-*-*-*--/  \--*-*-4-7-4-*-*---|
---8-5-0-5-0-5-8-----0-0-0-0-0-0-4-7-4-0-0-0-0-0-0-8-11-8-0-0-------0-0---|
R
-------------------------------------------------------------------------|
-------------------------------------------------------------------------|
---------------------------------------------------------------_---------|
-----------------------------------_-----------------_--------/ \--------|
-5-*-*-*-*-*-*-*-5\4-*-*-*-*-*-*--/ \--*-*-*-*-*-*--/ \--*-*-1-4-1-*-*---|
---8-5-0-5-0-5-8-----0-0-0-0-0-0-1-4-1-0-0-0-0-0-0-4-7-4-0-0-------0-0---|


0:42
L
---------------------------------------------------------------|
---------------------------------------------------------------|
----------------------^-------------------^--------^-----------|
------------------^--5-8--------------^--8-5-----11-8-------14-|
-5-*-*-*-*-*-*-*-4-7-----*-*-*-*--^--4-7-----7/10-----10/13----|
---8-5-0-5-0-5-8---------0-0-0-0-5-8---------------------------|
R
---------------------------------------------------------------|
---------------------------------------------------------------|
----------------------^-------------------^-------^------------|
------------------^--5-8--------------^--5-2-----8-5------11---|
-5-*-*-*-*-*-*-*-4-7-----*-*-*-*--^--1-4-----4/7-----7/10------|
---8-5-0-5-0-5-8---------0-0-0-0-2-5---------------------------|


0:45
L
----------------------------------------------------------------------------|
----------------------------------------------------------------------------|
--------------------------------------------------------_---------__--------|
-----------------------------------_---------__--------/ \-------/  \-------|
-5-*-*-*-*-*-*-*-5\4-*-*-*-*-*-*--/ \--*-*--/  \--*-*-4-7-4-*-*-7-10-7-*-*--|
---8-5-0-5-0-5-8-----0-0-0-0-0-0-4-7-4-0-0-8-11-8-0-0-------0-0--------0-0--|
R
---------------------------------------------------------------------------|
---------------------------------------------------------------------------|
-------------------------------------------------------_--------- _--------|
-----------------------------------_---------_--------/ \--------/ \-------|
-5-*-*-*-*-*-*-*-5\4-*-*-*-*-*-*--/ \--*-*--/ \--*-*-1-4-1-*-*--4-7-4-*-*--|
---8-5-0-5-0-5-8-----0-0-0-0-0-0-1-4-1-0-0-4-7-4-0-0-------0-0--------0-0--|



0:49
B
----------------------------------------------------------------------------------|
----------------------------------------------------------------------------------|
----------------------------------------------------------------------------------|
----------------------------------------------------------------------------------|
-5-*-*-*-*-*-*-*-5\4-*-*-*-*-*-*-4/5-*-*-5/7--*--*-7/8--*--*-8\--1-*-*-*-4-*-*-*--|
---8-5-0-5-0-5-8-----7-7-7-7-7-7-----8-8-----10-10-----11-11-------4-3-4---7-5-7--|



0:53
L
---------------------------------------------------------------------|
---------------------------------------------------------------------|
10-10-101010-9-7-5---5--5-5-5-7-9-12---12-121212-14-15-6--6-6-7-7-9--|
-X--X--X-X-X-X-X-X---X--X-X-X-X-X--X----X--X-X-X--X--X-X--X-X-X-X-X--|
-8--8--8-8-8-7-5-3---3--3-3-3-5-7-10---10-101010-12-13-4--4-4-5-5-7--|
---------------------------------------------------------------------|
R
------------------------------13---------------8---------------------|
-----10------10---------11------11--11-----6-----6-------------------|
--------10------10---------12-----12---------7-----7--9--9-9-1010-12-|
-----------8------------------------------------------X--X-X--X-X--X-|
-8-----------------10------------------5--------------7--7-7--8-8-10-|
-8-----------------10------------------5-----------------------------|



1:00
L
------------------------------------------------------------------------|
------------------------------------------------------------------------|
-/14-14-14-17-15-14-12-12-12-15-14-12-10-10-10-14-12-10-9-10-9----9-----|
---------------------------------------------------------------10---10--|
------------------------------------------------------------------------|
------------------------------------------------------------------------|
R
---------------------------------------------------------------|
---------------------------------------------------------------|
---------------------------------------------------------------|
---------------------------------------------------------------|
-*-*-*-5-*-5-*-5-*-*-*-7-*-7-*-*-*-8-*-8-10-8-7-8-7------------|
-3-3-3---3---3---5-5-5---5---7-7-7---7--------------10---------|



1:03
L
-------------------------------------------------------------------------|
-------------------------------------------------------------------------|
----------10----10----------12----12----------14----14-17-15-14----------|
-12-12-12----12----14-14-14----14----15-15-15----15-------------17-15-14-|
-------------------------------------------------------------------------|
-------------------------------------------------------------------------|
R
-------------------------------------------------------------------|
-------------------------------------------------------------------|
-------------------------------------------------------------------|
-------------------------------------------------------------------|
--*--*--*-13--*-13--*--*--*-12--*-12-*-*-*-10-*-10-12-10-8-10-8-7--|
-12-12-12----12----10-10-10----10----8-8-8----8--------------------|



1:06
L
-------------------------------------------------------------------|
-------------------------------------------------------------------|
----------------------------------------------------------------14-|
-------12-15----------14-17-------------------12----14----15-------|
-10-13-------13-12-15-------15--*-13--*-15--*-----*-----*-----*----|
-------------------------------12----12----12----12----12----12----|
R
----------------------------------------------------------|
----------------------------------------------------------|
---------------------------------------------------10-----|
-------------------------------------8---10---12----------|
-*-*-*-7-*-7-*-*-*-8-*-8-*-10-*-12-*---*----*----*----*---|
-5-5-5---5---7-7-7---7---8----8----8---8----8----8----8---|



1;09
L
-------------------------------------------------------------------------|
-------------------------------------------------------------------------|
-------------------------------------------------------------------------|
-------15-12----------12-8------------------12-8--------------10-7-------|
----13------13-----10------10----------12--------12-------8--------8-----|
-12-----------15-8------------12-10-10---10--------14-7-7---7-------10---|
R
------------------------------------------------------------------------|
------------------------------------------------------------------------|
------------------------------------------------------------------------|
------12-8------------8-5---------------10-7------------------7-3-------|
---10------10-------7-----7--------8---------8-----------5--------5-----|
-8------------12-5----------8-7-7----7----------10--3-3-----3-------7---|



1:13
L
----------------------------------------------------|
----------------------------------------------------|
----------------------------------------------------|
------12-8-----------8-5-----///--///--///---///----|
---10------10------7-----7----5----7----8----10-----|
-8------------12-5---------8------------------------|
R
----------------------------------------------------|
----------------------------------------------------|
----------------------------------------------------|
-----8-5---------5-2---------///--///--///--///-----|
---7-----7-----3-----3--------1----3----5----7------|
-5---------8-2---------5----------------------------|



1;16

L
------------------------------------------------------------------------|
------------------------------------------------------------------------|
-/14-14-14-17-15-14-12-12-12-15-14-12-10-10-10-14-12-10-9-10-9----9-----|
---------------------------------------------------------------10---10--|
------------------------------------------------------------------------|
------------------------------------------------------------------------|
R
---------------------------------------------------------------|
---------------------------------------------------------------|
---------------------------------------------------------------|
---------------------------------------------------------------|
-*-*-*-5-*-5-*-5-*-*-*-7-*-7-*-*-*-8-*-8-10-8-7-8-7------------|
-3-3-3---3---3---5-5-5---5---7-7-7---7--------------10---------|



1:19
L
-------------------------------------------------------------------------|
-------------------------------------------------------------------------|
----------10----10----------12----12----------14----14-17-15-14----------|
-12-12-12----12----14-14-14----14----15-15-15----15-------------17-15-14-|
-------------------------------------------------------------------------|
-------------------------------------------------------------------------|
R
-------------------------------------------------------------------|
-------------------------------------------------------------------|
-------------------------------------------------------------------|
-------------------------------------------------------------------|
--*--*--*-13--*-13--*--*--*-12--*-12-*-*-*-10-*-10-12-10-8-10-8-7--|
-12-12-12----12----10-10-10----10----8-8-8----8--------------------|



1:23
L
-------------------------------------------------------------------|
-------------------------------------------------------------------|
----------------------------------------------------------------14-|
-------12-15----------14-17-------------------12----14----15-------|
-10-13-------13-12-15-------15--*-13--*-15--*-----*-----*-----*----|
-------------------------------12----12----12----12----12----12----|
R
----------------------------------------------------------|
----------------------------------------------------------|
---------------------------------------------------10-----|
-------------------------------------8---10---12----------|
-*-*-*-7-*-7-*-*-*-8-*-8-*-10-*-12-*---*----*----*----*---|
-5-5-5---5---7-7-7---7---8----8----8---8----8----8----8---|


1:25
L
-------------------------------------------------------------------------|
-------------------------------------------------------------------------|
-------------------------------------------------------------------------|
-------15-12----------12-8------------------12-8--------------10-7-------|
----13------13-----10------10----------12--------12-------8--------8-----|
-12-----------15-8------------12-10-10---10--------14-7-7---7-------10---|
R
------------------------------------------------------------------------|
------------------------------------------------------------------------|
------------------------------------------------------------------------|
------12-8------------8-5---------------10-7------------------7-3-------|
---10------10----*--7-----7--------8---------8-----------5--------5-----|
-8------------12-5----------8-7-7----7----------10--3-3-----3-------7---|


1:29

L
----------------------------------|
----------------------------------|
----------------------------------|
------12-8-----------8-5----------|
---10------10------7-----7----0---|
-8------------12-5---------8--0---|
R
----------------------------------|
----------------------------------|
----------------------------------|
-----8-5---------5-2--------------|
---7-----7-----3-----3--------0---|
-5---------8-2---------5------0---|


1:32

L
---------------------------------------------------------------------------------|
-15-----///-////////////---------------------------------------------------------|
---14---14--15-14-12-11----/////////-///-----------///---------------------------|
-----12--------------------13-12-10---12///-///-///-12-//////-///----///-///-///-|
-----------------------------------------13--12-13-----13--12--10----12--13--13--|
---------------------------------------------------------------------------------|
R
-----------------------------------------------------------------------------------------|
------------------------------------------------------------_---------------_------------|
------------------_--------------------_-------------------/ \-------------/ \-----------|
-----------------/ \------------------/ \--5----5----5----5-7-9-7----7----7-8-7----------|
-5-**-5-**-5-**-3-5-6-5-**-5-**-5-**-5-7-9---**---**---**---------**---**-------10-9-6---|
---00---00---00---------00---00---00---------55---55---55---------44---44----------------|



1:39
L
-----------------------------------------------------------------------------------------|
-----------------------------------------------------------------------------------------|
-----------------------------------------------------------------------------------------|
//////-----------------------------------------------------------------------------------|
10-9---///--///---///--///-//////----///--///-///-//////////--/////////-///-///-///-///--|
-------13--12-----10--12--13--12-----8----7---5---4-5-4--1----0--4--5--4----5---7---8----|
R
-----------------------------------------------------------------------------------------|
-----------------------------------------------------------------------------------------|
-----------------------------------------------------------------------------------------|
-------------------------------------------------//////////--/////////-///-///-///-///---|
///-------------///----///--------///-------------4-5-4--1----0--4--5--4----5---7---8----|
-8---------------5------4----------1-----------------------------------------------------|


1:46
L
---------------------------------------------------------------------------------|
-15-----///-////////////---------------------------------------------------------|
---14---14--15-14-12-11----/////////-///-----------///---------------------------|
-----12--------------------13-12-10---12///-///-///-12-//////-///----///-///-///-|
-----------------------------------------13--12-13-----13--12--10----12--13--12--|
---------------------------------------------------------------------------------|
R
-----------------------------------------------------------------------------------------|
------------------------------------------------------------_---------------_------------|
------------------_--------------------_-------------------/ \-------------/ \-----------|
-----------------/ \------------------/ \--5----5----5----5-7-9-7----7----7-8-7----------|
-5-**-5-**-5-**-3-5-6-5-**-5-**-5-**-5-7-9---**---**---**---------**---**-------10-9-6---|
---00---00---00---------00---00---00---------55---55---55---------44---44----------------|



1:53
L
-----------------------------------------------------------------------------------------|
-----------------------------------------------------------------------------------------|
-----------------------------------------------------------------------------------------|
//////-----------------------------------------------------------------------------------|
10-9---///--///---///--///-//////----///--///-///-//////////--/////////-///-///-///-///--|
-------13--12-----10--12--13--12-----8----7---5---4-5-4--1----0--4--5--4----5---7---8----|
R
-----------------------------------------------------------------------------------------|
-----------------------------------------------------------------------------------------|
-----------------------------------------------------------------------------------------|
-------------------------------------------------//////////--/////////-///-///-///-///---|
///-------------///----///--------///-------------4-5-4--1----0--4--5--4----5---7---8----|
-8---------------5------4----------1-----------------------------------------------------|


1:59

L
-----------------------------------------------------------------------------|
-15--------------------------------------------------------------------------|
---14---14----15-14-12-11----------------------------------------------------|
-----12-------------------13--12--10---12-----------12-----------------------|
-----------------------------------------13-12-13------13-12-10----12-13-12~-|
-----------------------------------------------------------------------------|
R
-------------------------------------------------------------------------------|
-------------------------------------------------------------------------------|
-----------------------14--12--------------------------------------------------|
12-14-15-12---12-14-15--------15--14---12-11--11----12-11-----------11-12-11~--|
--------------------------------------------13------------13-12----------------|
-------------------------------------------------------------------------------|


2:06

L
-------------------------------------------------------------------------------------|
-------------------------------------------------------------------------------------|
-------------------------------------------------------------------------------------|
-------------------------------------------------------------------------------------|
10-9---------------------------------------------------------------------------------|
-----13-12-----10-12-13-12----8----7----5----4-5-4--1------0--4--5--4----4--5--7--8--|
R
-------------------------------------------------------------------------------------|
-------------------------------------------------------------------------------------|
-------------------------------------------------------------------------------------|
-8-7----7------8-7-------------------------------------------------------------------|
-----10------------10-9-------6----5----3----4-5-4-1-------0--4--5--4----4--5--7--8--|
-------------------------------------------------------------------------------------|


2:13
L
--------------------------------------------------------------------------|
--------------------------------------------------------------------------|
----------------------------------------------------------------_---------|
-----------------------------------_-----------------__--------/ \--------|
-5-*-*-*-*-*-*-*-5\4-*-*-*-*-*-*--/ \--*-*-*-*-*-*--/  \--*-*-4-7-4-*-*---|
---8-5-0-5-0-5-8-----0-0-0-0-0-0-4-7-4-0-0-0-0-0-0-8-11-8-0-0-------0-0---|
R
-------------------------------------------------------------------------|
-------------------------------------------------------------------------|
---------------------------------------------------------------_---------|
-----------------------------------_-----------------_--------/ \--------|
-5-*-*-*-*-*-*-*-5\4-*-*-*-*-*-*--/ \--*-*-*-*-*-*--/ \--*-*-1-4-1-*-*---|
---8-5-0-5-0-5-8-----0-0-0-0-0-0-1-4-1-0-0-0-0-0-0-4-7-4-0-0-------0-0---|


2:17
L
---------------------------------------------------------------|
---------------------------------------------------------------|
----------------------^-------------------^--------^-----------|
------------------^--5-8--------------^--8-5-----11-8-------14-|
-5-*-*-*-*-*-*-*-4-7-----*-*-*-*--^--4-7-----7/10-----10/13----|
---8-5-0-5-0-5-8---------0-0-0-0-5-8---------------------------|
R
---------------------------------------------------------------|
---------------------------------------------------------------|
----------------------^-------------------^-------^------------|
------------------^--5-8--------------^--5-2-----8-5------11---|
-5-*-*-*-*-*-*-*-4-7-----*-*-*-*--^--1-4-----4/7-----7/10------|
---8-5-0-5-0-5-8---------0-0-0-0-2-5---------------------------|


2:20
L
----------------------------------------------------------------------------|
----------------------------------------------------------------------------|
--------------------------------------------------------_---------__--------|
-----------------------------------_---------__--------/ \-------/  \-------|
-5-*-*-*-*-*-*-*-5\4-*-*-*-*-*-*--/ \--*-*--/  \--*-*-4-7-4-*-*-7-10-7-*-*--|
---8-5-0-5-0-5-8-----0-0-0-0-0-0-4-7-4-0-0-8-11-8-0-0-------0-0--------0-0--|
R
---------------------------------------------------------------------------|
---------------------------------------------------------------------------|
-------------------------------------------------------_--------- _--------|
-----------------------------------_---------_--------/ \--------/ \-------|
-5-*-*-*-*-*-*-*-5\4-*-*-*-*-*-*--/ \--*-*--/ \--*-*-1-4-1-*-*--4-7-4-*-*--|
---8-5-0-5-0-5-8-----0-0-0-0-0-0-1-4-1-0-0-4-7-4-0-0-------0-0--------0-0--|


2:23
L
-----------------------------------------------------------|
-----------------------------------------------------------|
-------------------------------------------------------P---|
-------------------------------------------------1-----H)--|
-5-*-*-*-*-*-*-*-5\4-*-*-*-*-*-*-4---*-*-*-*-*-*-1-*-*-3---|
---8-5-0-5-0-5-8-----7-7-7-7-7-7---4-4-4-4-4-4-4---4-1-----|
R
-----------------------------------------------------------|
-----------------------------------------------------------|
-----------------------------------------------------------|
-------------------------------------------------1-----P---|
-5-*-*-*-*-*-*-*-5\4-*-*-*-*-*-*-4---*-*-*-*-*-*-1-*-*-H)--|
---8-5-0-5-0-5-8-----7-7-7-7-7-7---4-4-4-4-4-4-4---4-1-3---|


2:27
L
--------------------------------------------------------------------------|
--------------------------------------------------------------------------|
----------------------------------------------------------------_---------|
-----------------------------------_-----------------__--------/ \--------|
-5-*-*-*-*-*-*-*-5\4-*-*-*-*-*-*--/ \--*-*-*-*-*-*--/  \--*-*-4-7-4-*-*---|
---8-5-0-5-0-5-8-----0-0-0-0-0-0-4-7-4-0-0-0-0-0-0-8-11-8-0-0-------0-0---|
R
-------------------------------------------------------------------------|
-------------------------------------------------------------------------|
---------------------------------------------------------------_---------|
-----------------------------------_-----------------_--------/ \--------|
-5-*-*-*-*-*-*-*-5\4-*-*-*-*-*-*--/ \--*-*-*-*-*-*--/ \--*-*-1-4-1-*-*---|
---8-5-0-5-0-5-8-----0-0-0-0-0-0-1-4-1-0-0-0-0-0-0-4-7-4-0-0-------0-0---|


2:30
L
---------------------------------------------------------------|
---------------------------------------------------------------|
----------------------^-------------------^--------^-----------|
------------------^--5-8--------------^--8-5-----11-8-------14-|
-5-*-*-*-*-*-*-*-4-7-----*-*-*-*--^--4-7-----7/10-----10/13----|
---8-5-0-5-0-5-8---------0-0-0-0-5-8---------------------------|
R
---------------------------------------------------------------|
---------------------------------------------------------------|
----------------------^-------------------^-------^------------|
------------------^--5-8--------------^--5-2-----8-5------11---|
-5-*-*-*-*-*-*-*-4-7-----*-*-*-*--^--1-4-----4/7-----7/10------|
---8-5-0-5-0-5-8---------0-0-0-0-2-5---------------------------|


2:34
L
----------------------------------------------------------------------------|
----------------------------------------------------------------------------|
--------------------------------------------------------_---------__--------|
-----------------------------------_---------__--------/ \-------/  \-------|
-5-*-*-*-*-*-*-*-5\4-*-*-*-*-*-*--/ \--*-*--/  \--*-*-4-7-4-*-*-7-10-7-*-*--|
---8-5-0-5-0-5-8-----0-0-0-0-0-0-4-7-4-0-0-8-11-8-0-0-------0-0--------0-0--|
R
---------------------------------------------------------------------------|
---------------------------------------------------------------------------|
-------------------------------------------------------_--------- _--------|
-----------------------------------_---------_--------/ \--------/ \-------|
-5-*-*-*-*-*-*-*-5\4-*-*-*-*-*-*--/ \--*-*--/ \--*-*-1-4-1-*-*--4-7-4-*-*--|
---8-5-0-5-0-5-8-----0-0-0-0-0-0-1-4-1-0-0-4-7-4-0-0-------0-0--------0-0--|


2:37
BOTH
----------------------------------------------------------------------------------|
----------------------------------------------------------------------------------|
----------------------------------------------------------------------------------|
----------------------------------------------------------------------------------|
-5-*-*-*-*-*-*-*-5\4-*-*-*-*-*-*-4/5-*-*-5/7--*--*-7/8--*--*-8\--1-*-*-*-4-*-*-*--|
---8-5-0-5-0-5-8-----7-7-7-7-7-7-----8-8-----10-10-----11-11-------4-3-4---7-5-7--|



2:42

L
---------------------------------------------------------------------|
---------------------------------------------------------------------|
10-10-101010-9-7-5---5--5-5-5-7-9-12---12-121212-14-15-6--6-6-7-7-9--|
-X--X--X-X-X-X-X-X---X--X-X-X-X-X--X----X--X-X-X--X--X-X--X-X-X-X-X--|
-8--8--8-8-8-7-5-3---3--3-3-3-5-7-10---10-101010-12-13-4--4-4-5-5-7--|
---------------------------------------------------------------------|
R
------------------------------13---------------8---------------------|
-----10------10---------11------11--11-----6-----6-------------------|
--------10------10---------12-----12---------7-----7--9--9-9-1010-12-|
-----------8------------------------------------------X--X-X--X-X--X-|
-8-----------------10------------------5--------------7--7-7--8-8-10-|
-8-----------------10------------------5-----------------------------|



2:48                               

L
-----------------------------------------------------------|
-------------------------------^---------------------------|
-14--------------------------14-12-------------------------|
----12---12-----------------------14-15--------------------|
-------12--------------------------------------------------|
-----------------------------------------------------------|
R
------------------------------------------------------------------------------|
------------------------------------------------------------------------------|
------------------------------ _--------------------------------------__------|
----------7--------------7- --/ \--7-------   -10--------------10----/  \--10-|
5-**-8-**---**-5-**-8-**---**5-7-8---8-**-12-**--**-8-**-12-**---**-8-10-12---|
--00---00---00---00---00---00----------88----88--88---88----88---88-----------|


2:54
L
---------------------------------------------------------------|
---------------------------------------------------------------|
----------------------12---------------------------------------|
-15-12-------------14---------15~------14~-----12------10------|
-------12-13----15---------------------------------------------|
---------------------------------------------------------------|
R
-----------------------------------------------------------------------------------|
------------------------------------------_----------------------------------------|
-------------10------------------10----- / \-10------_---------_---------_---------|
----**-12-*-*---*-*-----**-12-*-*---**--81012-------/ \-------/ \-------/ \--------|
13-1010--1010--1010-13-1010--1010--1010---------5--5-7-5----3--3-5-3--1--1-3-1--0--|
-----------------------------------------------------------------------------------|

3:00
L
-----------------------------------------------------------|
-------------------------------^---------------------------|
-14--------------------------14-12-------------------------|
----12---12-----------------------14-15--------------------|
-------12--------------------------------------------------|
-----------------------------------------------------------|
R
------------------------------------------------------------------------------|
------------------------------------------------------------------------------|
------------------------------ _--------------------------------------__------|
----------7--------------7- --/ \--7-------   -10--------------10----/  \--10-|
5-**-8-**---**-5-**-8-**---**5-7-8---8-**-12-**--**-8-**-12-**---**-8-10-12---|
--00---00---00---00---00---00----------88----88--88---88----88---88-----------|


3:06
L
---------------------------------------------------------------|
---------------------------------------------------------------|
----------------------12-------------------------------17------|
-15-12-------------14---------15~------17~-----19--------------|
-------12-13----15---------------------------------------------|
---------------------------------------------------------------|
R
--------------------------------------------------------------------------------------|
------------------------------------------_-------------------------------------------|
-------------10------------------10----- / \-10---------------------------------------|
----**-12-*-*---*-*-----**-12-*-*---**--81012--------------------------------------10-|
13-1010--1010--1010-13-1010--1010--1010---------8--8-10-12-10-10-12-13-12-10-12-13----|
--------------------------------------------------------------------------------------|


3:13

L
--17-------------17-15-13-15-13----13-----------------|
-----15----15-------------------17----17-15-13-15-17--|
--------14--------------------------------------------|
------------------------------------------------------|
------------------------------------------------------|
------------------------------------------------------|
R
------------------------------------------------------|
------------------------------------------------------|
------------------------------------------------------|
-----------7-----8-7-5-7-5---5------------------------|
-5-**-8-**-----------------8---8-7-5-7-5--------------|
---00---00--------------------------------------------|



3:15

L
--17-15-----------18-17-15-17-15----15-----------------|
--------17-18--------------------18----18-17-15-17-15--|
-------------------------------------------------------|
-------------------------------------------------------|
-------------------------------------------------------|
-------------------------------------------------------|
R
-------------------------------------------------------|
-------------------------------------------------------|
-------------------------------------------------------|
------------10------12-10-8-10-8----8------------------|
-8-**-12-**----------------------12---12-10-8-10-12----|
---88----88--------------------------------------------|


3:19

L
-------------------------------------------------------------------------------------------|
--18-15------------------------------------------------------------------------------------|
--------14-15-------15-14-12-14-12----12---------------------------------------------------|
-----------------------------------15----15-14-12-14-15------------------------------------|
--------------------------------------------------------13---15-17-15--17-19-17--19-20-19--|
-------------------------------------------------------------------------------------------|
R
-------------------------------------------------------------------------------------------|
-------------------------------------------------------------------------------------------|
---------------10---12-10-9-10-9----9------------------------------------------------------|
----*-*-12--*-*------------------12---12-10-9-10-12----------------------------------------|
13-1010----1010---------------------------------------5-----7--5--3-----5--3--1----3--1--0-|
-------------------------------------------------------------------------------------------|


3:24

L
--17-------------17-15-13-15-13----13-----------------|
-----15----15-------------------17----17-15-13-15-17--|
--------14--------------------------------------------|
------------------------------------------------------|
------------------------------------------------------|
------------------------------------------------------|
R
------------------------------------------------------|
------------------------------------------------------|
------------------------------------------------------|
-----------7-----8-7-5-7-5---5------------------------|
-5-**-8-**-----------------8---8-7-5-7-5--------------|
---00---00--------------------------------------------|


3:27

L
--17-15-----------18-17-15-17-15----15-----------------|
--------17-18--------------------18----18-17-15-17-15--|
-------------------------------------------------------|
-------------------------------------------------------|
-------------------------------------------------------|
-------------------------------------------------------|
R
-------------------------------------------------------|
-------------------------------------------------------|
-------------------------------------------------------|
------------10------12-10-8-10-8----8------------------|
-8-**-12-**----------------------12---12-10-8-10-12----|
---88----88--------------------------------------------|


3:31
L
-------------------------------------------------------------------------------------------------|
-18-15-------------------------------------------------------------------------------------------|
-------14-15-------15-14-12-14-12----12----------------------------------------------------------|
----------------------------------15----15-14-12-14-15-------------------------------------------|
-------------------------------------------------------13--13-15-17-15--15-17-19-17-17--19-20-19-|
-------------------------------------------------------------------------------------------------|
R
-------------------------------------------------------------------------------------------------|
-------------------------------------------------------------------------------------------------|
---------------10---12-10-9-10-9----9------------------------------------------------------------|
----*-*-12--*-*------------------12---12-10-9-10-12-------------------------------------------10-|
13-1010----1010------------------------------------------8--8-10-12-10--10-12-13-12--10-12-13----|
-------------------------------------------------------------------------------------------------|


3:36

L
--8---------------8-6-----------------------------------------------------------------|
----6---6-------------8/10------------------------------------------------------------|
------5--------------------------14-10--------------12-15-12/14----12----10----9------|
---------------------------------------10/12-----14-----------------------------------|
--------------------------------------------------------------------------------------|
--------------------------------------------------------------------------------------|
R
--------------------------------------------------------------------------------------|
--------------------------------------------------------------------------------------|
---14-----------14-12--------------------------------12-------------------------------|
-----12--12-----------14-15----15-12--------------14----14/15------14----12----10-----|
-------12---------------------------12-13-----15--------------------------------------|
--------------------------------------------------------------------------------------|



3:48
L
                          ^
-8----------8--12--8-----8-6--------------17------------------------------------------|
---6---6/10----------10------8/10--13--17----17--13--10-----------------------17------|
-----5---------------------------------------------------14-10----------14-17----17-14|
---------------------------------------------------------------10-12/15---------------|
--------------------------------------------------------------------------------------|
--------------------------------------------------------------------------------------|
R
--------------------------------------------------------------------------------------|
--------------------------------------------------------------------------------------|
---14----------------------14-12------------------------------------------------------|
-----12--12---------------------14-15---------------------15-12-----------------------|
-------12-------------------------------------------------------12-13-----------------|
--------------------------------------------------------------------------------------|


3:57

L
--------------------------------------)(-------------------------|
------------------------------------20----18---------------------|
-----12-15-12/14-----17-----21-----------------------------------|
--14-------------------------------------------------------------|
-----------------------------------------------------------------|
-----------------------------------------------------------------|
R
---------------------------------------)(-----------------------|
-------------------------------------17----15-------------------|
--------12-----------14------17---------------------------------|
-----14----14/15------------------------------------------------|
--15------------------------------------------------------------|
----------------------------------------------------------------|

Добавлено: 21.11.2013
Другие материалы по этой песне:
  • Аккорды и текст

Страница создана 21.11.2013
http://primanota.ru/conducting-from-the-grave/burdens-of-a-dying-world-chords.htm
Привет, Гость.
Предлагаем пройти революционный курс по гитаре.
Подарок от PrimaNota.Ru, забирай!