PrimaNota.ru - самый крупный в мире бесплатный архив песенных текстов, аккордов, табулатур и нот


Conducting From The Grave - A Never Ending Search For Closure - текст песни, таба, видео

Регистрация Запомнить меня
Войти через:  Facebook Google Twitter Vk Yandex Mail.ru

Conducting From The Grave - A Never Ending Search For Closure - текст песни, таба, видео

Печатать
Просмотров: 196
Уроки эстрадного вокала в Санкт-Петербурге
Conducting From The Grave
A Never Ending Search For Closure
Drop D half-step down(DbAbDbGbBbEb)


Eb|--------------------------------------|
Bb|--------------------------------------|
Gb|--------------------------------------|
Db|------6-----5-------------------------|
Ab|------------------6-------6p4\3-3h4p3-|
Db|3-3-3---3-3---3-3---3-3-3-------------|

Eb|--------------------------------|
Bb|--------------------------------|
Gb|--------------------------------|
Db|--------------------------------|
Ab|------3-----3/4-------6-6-6-4-3-|
Db|6-6-6---6-6-----5-5-5-----------|

Eb|--------------------------------------|
Bb|--------------------------------------|
Gb|--------------------------------------|
Db|------6-----5-------------------------|
Ab|------------------6-------6p4\3-3h4p3-|
Db|3-3-3---3-3---3-3---3-3-3-------------|

Eb|----------------------------------|
Bb|----------------------------------|
Gb|------------------5-6-5-6-8-6-5-6-|
Db|----------------------------------|
Ab|------4-4-4-3-3-------------------|
Db|2-2-2-----------------------------|


Eb|--------------------------------------|
Bb|--------------------------------------|
Gb|--------------------------------------|
Db|------6-----5-------------------------|
Ab|------------------6-------6p4\3-3h4p3-|
Db|3-3-3---3-3---3-3---3-3-3-------------|

Eb|--------------------------------|
Bb|--------------------------------|
Gb|--------------------------------|
Db|--------------------------------|
Ab|------3-----3/4-------6-6-6-4-3-|
Db|6-6-6---6-6-----5-5-5-----------|

Eb|--------------------------------------|
Bb|--------------------------------------|
Gb|--------------------------------------|
Db|------6-----5-------------------------|
Ab|------------------6-------6p4\3-3h4p3-|
Db|3-3-3---3-3---3-3---3-3-3-------------|

Eb|----------------------------------|
Bb|----------------------------------|
Gb|------------------5-6-5-6-8-6-5-6-|
Db|----------------------------------|
Ab|------4-4-4-3-3-------------------|
Db|2-2-2-----------------------------|

Eb|--------------------------------------|
Bb|--------------------------------------|
Gb|--------------------------------------|
Db|------6-----5-------------------------|
Ab|------------------6-------6p4\3-3h4p3-|
Db|3-3-3---3-3---3-3---3-3-3-------------|

Eb|--------------------------------|
Bb|--------------------------------|
Gb|--------------------------------|
Db|--------------------------------|
Ab|------3-----3/4-------6-6-6-4-3-|
Db|6-6-6---6-6-----5-5-5-----------|

Eb|--------------------------------------|
Bb|--------------------------------------|
Gb|--------------------------------------|
Db|------6-----5-------------------------|
Ab|------------------6-------6p4\3-3h4p3-|
Db|3-3-3---3-3---3-3---3-3-3-------------|

Eb|----------------------------------|
Bb|----------------------------------|
Gb|----------------------------------|
Db|----------------------------------|
Ab|------4-4-4-3-3-------------------|
Db|2-2-2------------3-4-3-4-6-4-3-4--|

ill figure more out and post it wen i get it....just hav fun with this for now....
Добавлено: 21.07.2012
Другие материалы по этой песне:
  • Аккорды и текст

Страница создана 09.04.2012
http://primanota.ru/conducting-from-the-grave/a-never-ending-search-for-closure-chords.htm
Привет, Гость.
Предлагаем пройти революционный курс по гитаре.
Подарок от PrimaNota.Ru, забирай!