PrimaNota.ru - самый крупный в мире бесплатный архив песенных текстов, аккордов, табулатур и нот


Conditions - Walking Separate Ways - таба, видео

Регистрация Запомнить меня
Войти через:  Facebook Google Twitter Vk Yandex Mail.ru

Conditions - Walking Separate Ways - таба, видео

Печатать
Просмотров: 95
Tabbed by: Joshua Garcia (joshuag523@aol.com)

Tabs for the song: Walking Separate Ways by Conditions
Please rate and let me know if you have any corrections. Thank you.


Tuning: Drop D (D A D G B E)


Intro
Guitar 1:
E||------------------------------------|
B||------------------------------------|
G||--12121212121212121212121212121212--|
D||--x-x-x-x-x-x-x-x-x-x-x-x-x-x-x-x---|
A||--10101010101010101010101010101010--|
D||------------------------------------|


E||---------------------------------------------------------------------|
B||---------------------------------------------------------------------|
G||--12121212121212121212121212121212-----------------------------------|
D||--x-x-x-x-x-x-x-x-x-x-x-x-x-x-x-x--12121212121212121212121212121212--|
A||--10101010101010101010101010101010-10101010101010101010101010101010--|
D||---------------------------------------------------------------------|


E||--------------------------------------------------------------------|
B||--------------------------------------------------------------------|
G||--------------------------------------------------------------------|
D||--13131313131313131313131313-8----8--h1010101010101010101010-x-x-x--|
A||--10101010101010101010101010-10---10--1010101010101010101010-x-x-x--|
D||-------------------------------------------------------------x-x-x--|



Pre-Verse
Guitar 1/2:
E||-------------------------------------------------------|
B||-------------------------------------------------------|
G||-------------------------------------------------------|
D||--3~--/55555---3/55---55\3--3~--/55555---3/55---55\3---|
A||--3~--/55555---3/55---55\3--3~--/55555---3/55---55\3---|
D||--3~--/55555---3/55---55\3--3~--/55555---3/55---55\3---|


E||-----------------------------------------|
B||---------------------------------6---6~--|
G||---------------------------------x---x---|
D||--3~--\-------------x-3-3---/55--5--55~--|
A||--3~--\55--5--55~---x-1-1~--/33--3--33~--|
D||--3~--\11--1--11~---x--------------------|



Verse
Guitar 1:
E||---------------------------------------------------------------------|
B||---------------------------------------------------------------------|
G||--12121212121212121212121212121212-----------------------------------|
D||--x-x-x-x-x-x-x-x-x-x-x-x-x-x-x-x--12121212121212121212121212121212--|
A||--10101010101010101010101010101010-10101010101010101010101010101010--|
D||---------------------------------------------------------------------|


E||------------------------------------------------------------------|
B||------------------------------------------------------------------|
G||------------------------------------------------------------------|
D||--13131313131313131313131313-8----8--h10101010101010101010101010--|
A||--10101010101010101010101010-10---10--10101010101010101010101010--|
D||------------------------------------------------------------------|



Pre-Chorus
Guitar 1:
E||---------------------------------------------------------------------|
B||---------------------------------------------------------------------|
G||--12121212121212121212121212121212-----------------------------------|
D||--x-x-x-x-x-x-x-x-x-x-x-x-x-x-x-x--12121212121212121212121212121212--|
A||--10101010101010101010101010101010-10101010101010101010101010101010--|
D||---------------------------------------------------------------------|


E||--------------------------------------------------------------|
B||--------------------------------------------------------------|
G||--------------------------------------------------------------|
D||--13131313131313131313131313-8----8--h1010101010101010101010--|
A||--10101010101010101010101010-10---10--1010101010101010101010--|
D||--------------------------------------------------------------|


Guitar 2:
E||--------------------------------------------------|
B||--------------------------------------------------|
G||--------------------------------------------------|
D||--------------------------------------------------|
A||-------8--\-5---------------------------------3~--|
D||--5~-/---------8--\-55~-----/8--\1~-----/5--\-5~--|



Chorus
Guitar 1:
E||---------------------------------------------------------------------------------------------|
B||---------------------------------------------------------------------------------------------|
G||---------------------------------------------------------------------------------------------|
D||--111--111--111--111--333--333--333--333--555--5-7--8--88--888--101010--101010--101010--777--| x2
A||--111--111--111--111--333--333--333--333--555--5-7--8--88--888--101010--101010--101010--777--|
D||--111--111--111--111--333--333--333--333--555--5-7--8--88--888--101010--101010--101010--777--|


E||------|
B||------|
G||------|
D||--5\--|
A||--5\--|
D||--5\--|


Guitar 2:
E||-------------------|
B||-------------------|
G||-------10------10--|
D||--8888----8--------| x16
A||------------10-----|
D||-------------------|



Guitar 1:
E||-----------------------------------------------------------------------------|
B||-----------------------------------------------------------------------------|
G||--12121212121212121212121212121212-------------------------------------------|
D||--x-x-x-x-x-x-x-x-x-x-x-x-x-x-x-x--12121212121212121212121212121212-10101010-|
A||--10101010101010101010101010101010-10101010101010101010101010101010-10101010-|
D||-----------------------------------------------------------------------------|


Guitar 1/2:
E||---------|
B||---------|
G||---------|
D||--x-x-x--|
A||--x-x-x--|
D||--x-x-x--|



Pre-Verse
Guitar 1/2:
E||-----------------------------------------|
B||---------------------------------6---6~--|
G||---------------------------------x---x---|
D||--3~--\-------------x-3-3---/55--5--55~--|
A||--3~--\55--5--55~---x-1-1~--/33--3--33~--|
D||--3~--\11--1--11~---x--------------------|



Verse
Guitar 1:
E||---------------------------------------------------------------------|
B||---------------------------------------------------------------------|
G||--12121212121212121212121212121212-----------------------------------|
D||--x-x-x-x-x-x-x-x-x-x-x-x-x-x-x-x--12121212121212121212121212121212--|
A||--10101010101010101010101010101010-10101010101010101010101010101010--|
D||---------------------------------------------------------------------|


E||--------------------------------------------------------------------|
B||--------------------------------------------------------------------|
G||--------------------------------------------------------------------|
D||--13131313131313131313131313-8----8--h1010101010101010101010-x-x-x--|
A||--10101010101010101010101010-10---10--1010101010101010101010-x-x-x--|
D||-------------------------------------------------------------x-x-x--|



Pre-Chorus
Guitar 1:
E||---------------------------------------------------------------------|
B||---------------------------------------------------------------------|
G||--12121212121212121212121212121212-----------------------------------|
D||--x-x-x-x-x-x-x-x-x-x-x-x-x-x-x-x--12121212121212121212121212121212--|
A||--10101010101010101010101010101010-10101010101010101010101010101010--|
D||---------------------------------------------------------------------|


E||-------------------------------------------------------------------|
B||-------------------------------------------------------------------|
G||-------------------------------------------------------------------|
D||--13131313131313131313131313-8----8--h1010101010101010----x-x-x-x--|
A||--10101010101010101010101010-10---10--1010101010101010----x-x-x-x--|
D||-------------------------------------------------------------------|


Guitar 2:
E||-------------------------------------------------------------------|
B||-------------------------------------------------------------------|
G||-------------------------------------------------------------------|
D||-------------------------------------------------------------------|
A||---------8--\-5---------------------------------3~--------x-x-x-x--|
D||--3/5~-/---------8--\-55~-----/8--\1~-----/5--\-5~--------x-x-x-x--|



Chorus
Guitar 1:
E||---------------------------------------------------------------------------------------------|
B||---------------------------------------------------------------------------------------------|
G||---------------------------------------------------------------------------------------------|
D||--111--111--111--111--333--333--333--333--555--5-7--8--88--888--101010--101010--101010--777--| x2
A||--111--111--111--111--333--333--333--333--555--5-7--8--88--888--101010--101010--101010--777--|
D||--111--111--111--111--333--333--333--333--555--5-7--8--88--888--101010--101010--101010--777--|


Guitar 2:
E||-------------------|
B||-------------------|
G||-------10------10--|
D||--8888----8--------| x16
A||------------10-----|
D||-------------------|



Bridge
Guitar 1:
E||--------------------------------------------------------------------------|
B||------6----6~---6----6~---6----6~----------------------------6---8-6---6--|
G||----7---7--5h7----7--5h7----7--5h7--7-5-----5h7--5-------------------7----|
D||--8--------------------------------------5--5~---5--8----7h8---8----------|
A||--------------------------------------------------------------------------|
D||--------------------------------------------------------------------------|


E||------------------------------------------------------------------------10----13~--|
B||------6----6~---6----6~---6----6~---------------------------10-11-13---------------|
G||----7---7--5h7----7--5h7----7--5h7--7-5-4-5-7/12~--12-12-------------10----10------|
D||--8------------------------------------------------------12------------------------|
A||-----------------------------------------------------------------------------------|
D||-----------------------------------------------------------------------------------|


Guitar 2:
E||------------------------------------|------------------------------------------------------|
B||------------------------------------|------------------------------------------------------|
G||------------------------------------|------------------------------------------------------|
D||------------------------------------|--------------------------------5--5--5--5--55555555--|
A||------------------------------------|--------------------------------5--5--5--5--55555555--|
D||--1~--------3~--------5~--------8~--|--1~--------3~--------5~--------5--5--5--5--55555555--|
                                                                        .  .  .  .



Chorus
Guitar 1:
E||---------------------------------------------------------------------------------------------|
B||---------------------------------------------------------------------------------------------|
G||---------------------------------------------------------------------------------------------|
D||--111--111--111--111--333--333--333--333--555--5-7--8--88--888--101010--101010--101010--777--| x2
A||--111--111--111--111--333--333--333--333--555--5-7--8--88--888--101010--101010--101010--777--|
D||--111--111--111--111--333--333--333--333--555--5-7--8--88--888--101010--101010--101010--777--|


Guitar 2:
E||-------------------|
B||-------------------|
G||-------10------10--|
D||--8888----8--------| x16
A||------------10-----|
D||-------------------|



Outro
Guitar 1:
E||--------------10----------------------13-----------|
B||--------11-------11----11-------11-------11----11--|
G||--10h12----12-------12----10h12----12-------12-----|
D||---------------------------------------------------|
A||---------------------------------------------------|
D||---------------------------------------------------|


E||--------------10-------11----10------------------------|
B||--------11-------11-------11----11-13-11-10h11-10--11--|
G||--10h12----12-------12---------------------------------|
D||-------------------------------------------------------|
A||-------------------------------------------------------|
D||-------------------------------------------------------|


E||--------------10----------------------13-----------|
B||--------11-------11----11-------11-------11----11--|
G||--10h12----12-------12----10h12----12-------12-----|
D||---------------------------------------------------|
A||---------------------------------------------------|
D||---------------------------------------------------|


E||-------------------------|
B||-------------------------|
G||--19~---------\(12)-12~--|
D||--x-----------\(x-)-x----|
A||--17~---------\(10)-10~--|
D||-------------------------|


Guitar 2:
E||-------------------------------------------------------------------|
B||-------------------------------------------------------------------|
G||-------------------------------------------------------------------|
D||--1-1-1-1-1-1-1-1-3-3-3-3-3-3-3-3-1-1-1-1-1-1-1-1-3-3-3-3-3-3-x-x--|
A||--1-1-1-1-1-1-1-1-3-3-3-3-3-3-3-3-1-1-1-1-1-1-1-1-3-3-3-3-3-3-x-x--|
D||--1-1-1-1-1-1-1-1-3-3-3-3-3-3-3-3-1-1-1-1-1-1-1-1-3-3-3-3-3-3-x-x--|


E||--------------------------------------|
B||--------------------------------------|
G||--------------------------------------|
D||--1-1-1-1-1-1-1-1-3-3-3-3-3-3-3-3-5~--|
A||--1-1-1-1-1-1-1-1-3-3-3-3-3-3-3-3-5~--|
D||--1-1-1-1-1-1-1-1-3-3-3-3-3-3-3-3-5~--|


Guitar 1/2:
E||------------------------------------------------------------------|
B||------------------------------------------------------------------|
G||------------------------------------------------------------------|
D||--x-x-x-3~--/55555---3/55---55\3--3~--/55555---3/55---5--5--5~-\--|
A||--x-x-x-3~--/55555---3/55---55\3--3~--/55555---3/55---5--5--5~-\--|
D||--x-x-x-3~--/55555---3/55---55\3--3~--/55555---3/55---5--5--5~-\--|




Tablature Legend
----------------
 h   - hammer-on
 p   - pull-off
 b   - bend
 r   - release bend
 *   - pinch harmonic
 '   - natural harmonic
 x   - mute note
 .   - palm mute
 /   - slide down
 \   - slide up
Добавлено: 23.06.2013
Другие материалы по этой песне:
  • Аккорды и текст

Страница создана 23.06.2013
http://primanota.ru/conditions/walking-separate-ways-chords.htm
Привет, Гость.
Предлагаем пройти революционный курс по гитаре.
Подарок от PrimaNota.Ru, забирай!