PrimaNota.ru - самый крупный в мире бесплатный архив песенных текстов, аккордов, табулатур и нот


Conditions - Love Elusive - таба, видео

Регистрация Запомнить меня
Войти через:  Facebook Google Twitter Vk Yandex Mail.ru

Conditions - Love Elusive - таба, видео

Печатать
Просмотров: 150
Уроки эстрадного вокала в Санкт-Петербурге
Tabbed by: Joshua Garcia (joshuag523@aol.com)

Tabs for the song: Love Elusive by Conitions
Please rate and let me know if you have any corrections. Thank you.


Tuning: Drop C (C G C F A D)


Intro
Guitar 1:
D||------8-----8----------8-----8----------8-----8----------8-----8------|
A||----6-----6-----6----6-----6-----6----6-----6-----6----6-----6-----6--|
F||--7-----7-----7----9-----9-----9---------------------5-----5-----5----|
C||------------------------------------8-----8-----8---------------------|
G||----------------------------------------------------------------------|
C||----------------------------------------------------------------------|
     . . . . . . . .  . . . . . . . .  . . . . . . . .  . . . . . . . .


D||------8-----8----------8-----8----------8-----8---------------8-------|
A||----6-----6-----6----6-----6-----6----6-----6-----6----5h6p5----6-----|
F||--7-----7-----7----9-----9-----9---------------------5------------9~--|
C||------------------------------------8-----8-----8---------------------|
G||----------------------------------------------------------------------|
C||----------------------------------------------------------------------|
     . . . . . . . .  . . . . . . . .  . . . . . . . .  .



Pre-Verse
Guitar 1:
D||------------------------------------------|-------------------------------------------|
A||------------------------------------------|-------------------------------------------|
F||------------------------------------------|-------------------------------------------|
C||------10-----10------------------7-8-7----|------10-----10------------------7-8-7-----| x2
G||----8------8------8-----8-10-----------8--|----8------8------8-----8-10-----------10--|
C||--0------0------0----10------10-----------|--8------8------8----10------10------------|


Guitar 2:
D||-------------------------------------------------------|
A||-------------------------------------------------------|
F||-------------------------------------------------------|
C||--00000000-1010101010101010-88888888-1010101010101010--|
G||--00000000-1010101010101010-88888888-1010101010101010--|
C||--00000000-1010101010101010-88888888-1010101010101010--|


D||-------------------------------------------------------|
A||-------------------------------------------------------|
F||--77777777-99999999-1010101010101010-1212121212121212--|
C||--xxxxxxxx-xxxxxxxx-x-x-x-x-x-x-x-x--x-x-x-x-x-x-x-x---|
G||--55555555-77777777-8-8-8-8-8-8-8-8--1010101010101010--|
C||-------------------------------------------------------|



Verse
Guitar 1:
D||------8~------8~------8~-----8~------8~------8~------8~------8~--|
A||----6---------------6--------------6---------------6-------------|
F||--7---------------9------------------------------5---------------|
C||---------------------------------8-------------------------------| x2
G||-----------------------------------------------------------------|
C||-----------------------------------------------------------------|


D||------8-----8----------8-----8----------8-----8----------8-----8------|
A||----6-----6-----6----6-----6-----6----6-----6-----6----6-----6-----6--|
F||--7-----7-----7----9-----9-----9---------------------5-----5-----5----|
C||------------------------------------8-----8-----8---------------------|
G||----------------------------------------------------------------------|
C||----------------------------------------------------------------------|


Guitar 2:
D||-------------------------------------------------------|
A||-------------------------------------------------------|
F||-------------------------------------------------------|
C||--00000000-1010101010101010-88888888-101010~--101010~--|
G||--00000000-1010101010101010-88888888-101010~--101010~--|
C||--00000000-1010101010101010-88888888-101010~--101010~--|
     ........ . . . . . . . .  ........ . .      . .

D||-------------------------------------------------------|
A||-------------------------------------------------------|
F||-------------------------------------------------------|
C||--00000000-1010101010101010-88888888-1010101010101010--|
G||--00000000-1010101010101010-88888888-1010101010101010--|
C||--00000000-1010101010101010-88888888-1010101010101010--|
     ........ . . . . . . . .  ........ . . . . . . . .



Pre-Chorus
Guitar 1:
D||--10---12---13---12---12b13r12~--|----------------------------------|
A||---------------------------------|----------------------------------|
F||---------------------------------|--1414141414141414-12121212-9999--|
C||---------------------------------|--x-x-x-x-x-x-x-x--x-x-x-x--xxxx--|
G||---------------------------------|--1212121212121212-10101010-7777--|
C||---------------------------------|----------------------------------|


D||--10---12---13---12---12b13r12~--|----------------------------------------|
A||---------------------------------|----------------------------------------|
F||---------------------------------|--1919191919191919-17--------------17---|
C||---------------------------------|--x-x-x-x-x-x-x-x--x---------------x----|
G||---------------------------------|--1717171717171717-15-151515151515-15\--|
C||---------------------------------|----------------------------------------|
                                                           . . . . . .

Guitar 2:
D||---------------------------------|------------------------------------|
A||---------------------------------|------------------------------------|
F||---------------------------------|------------------------------------|
C||--0~----0~----0~----0~----0--0~--|--10101010101010101010101010101010--|
G||--0~----0~----0~----0~----0--0~--|--10101010101010101010101010101010--|
C||--0~----0~----0~----0~----0--0~--|--10101010101010101010101010101010--|


D||-------|----------------------------------------|
A||-------|----------------------------------------|
F||-------|----------------------------------------|
C||--10~--|--1010101010101010-10--------------10\--|
G||--8~---|--1010101010101010-10--------------10\--|
C||--8~---|--1010101010101010-10-101010101010-10\--|
                                 . . . . . .



Chorus
Guitar 1:
D||----------------------------------------------------------------------|
A||----------------------------------------------------------------------|
F||--1414141414141414-1010101010101010-12121212121212121212121212121212--|
C||--1515151515151515-1010101010101010-10101010101010101010101010101010--| x2
G||----------------------------------------------------------------------|
C||----------------------------------------------------------------------|


Guitar 2:
D||--------------------------------------------------------------|
A||--------------------------------------------------------------|
F||-----------1010101010101010-----------------------------------|
C||--88888888-1010101010101010-10101010101010101010101010101010--| x2
G||--88888888-8-8-8-8-8-8-8-8--10101010101010101010101010101010--|
C||--88888888------------------10101010101010101010101010101010--|


Guitar 1:
D||--------13~---------13~---------13~---13--12--|----------------------------------------15--|
A||-----10----------10----------10-------10--8---|-----10/13-----10/13-----10/13----13-13-----|
F||--------------------------------------x---x---|--10--------10--------10--------------------|
C||--12----------12----------12----------12--10--|--------------------------------------------|
G||----------------------------------------------|--------------------------------------------|
C||----------------------------------------------|--------------------------------------------|


D||---------------------------------------------------------|
A||---------------------------------------------------------|
F||--10101010101010101010101010101010-1212121212121212-12~--|
C||--10101010101010101010101010101010-1010101010101010-10~--|
G||---------------------------------------------------------|
C||---------------------------------------------------------|


Guitar 2:
D||----------------------------------------------------------------------------|
A||----------------------------------------------------------------------------|
F||----------------------------------------------------------------------------|
C||--8888888888888888-33333333-22222222-0000000000000000-1010101010101010-10~--|
G||--8888888888888888-33333333-22222222-0000000000000000-1010101010101010-10~--|
C||--8888888888888888-33333333-22222222-0000000000000000-1010101010101010-10~--|



Pre-Verse
Guitar 1:
D||------------------------------------------|-------------------------------------------|
A||------------------------------------------|-------------------------------------------|
F||------------------------------------------|-------------------------------------------|
C||------10-----10------------------7-8-7----|------10-----10------------------7-8-7-----| x2
G||----8------8------8-----8-10-----------8--|----8------8------8-----8-10-----------10--|
C||--0------0------0----10------10-----------|--8------8------8----10------10------------|


Guitar 2:
D||-------------------------------------------------------|
A||-------------------------------------------------------|
F||-------------------------------------------------------|
C||--00000000-1010101010101010-88888888-1010101010101010--|
G||--00000000-1010101010101010-88888888-1010101010101010--|
C||--00000000-1010101010101010-88888888-1010101010101010--|


D||-------------------------------------------------------|
A||-------------------------------------------------------|
F||--77777777-99999999-1010101010101010-1212121212121212--|
C||--xxxxxxxx-xxxxxxxx-x-x-x-x-x-x-x-x--x-x-x-x-x-x-x-x---|
G||--55555555-77777777-8-8-8-8-8-8-8-8--1010101010101010--|
C||-------------------------------------------------------|



Verse
Guitar 1:
D||------------------------------------------|-------------------------------------------|
A||------------------------------------------|-------------------------------------------|
F||------------------------------------------|-------------------------------------------|
C||------10-----10------------------7-8-7----|------10-----10------------------7-8-7-----| x2
G||----8------8------8-----8-10-----------8--|----8------8------8-----8-10-----------10--|
C||--0------0------0----10------10-----------|--8------8------8----10------10------------|
     . . .  . . .  . .  .  . .  .               . . .  . . .  . .  .  . .  .


D||--------------------------------------------------------|
A||--------------------------------------------------------|
F||--------------------------------------------------------|
C||--/10~----7~----/10~----------/10~----7~------------7~--| x2
G||------------------------8~------------------/10~--------|
C||--------------------------------------------------------|


Guitar 2:
D||------8~------8~------8~-----8~------8~------8~------8~------8~--|
A||----6-------6-------6------6-------6-------6-------6-------6-----|
F||--7---------------9------------------------------5---------------|
C||---------------------------------8-------------------------------| x2
G||-----------------------------------------------------------------|
C||-----------------------------------------------------------------|



Pre-Chorus
Guitar 1:
D||---------------------------------------------------------|
A||---------------------------------------------------------|
F||--777-999-101010-1212121212121212------------------------|
C||--xxx-xxx-x-x-x--x-x-x-x-x-x-x-x---88888888--------------|
G||--555-777-8-8-8--1010101010101010--88888888--//pick////--|
C||-----------------------------------88888888--///slide//--|


Guitar 2:
D||---------------------------------------------------------------|
A||---------------------------------------------------------------|
F||--101010-121212-141414-1515151515151515------------------------|
C||--x-x-x--x-x-x--x-x-x--x-x-x-x-x-x-x-x---88888888--------------|
G||--8-8-8--101010-121212-1313131313131313--88888888--//pick////--|
C||-----------------------------------------88888888--///slide//--|



Chorus
Guitar 1:
D||----------------------------------------------------------------------|
A||----------------------------------------------------------------------|
F||--1414141414141414-1010101010101010-12121212121212121212121212121212--|
C||--1515151515151515-1010101010101010-10101010101010101010101010101010--| x2
G||----------------------------------------------------------------------|
C||----------------------------------------------------------------------|


Guitar 2:
D||--------------------------------------------------------------|
A||--------------------------------------------------------------|
F||-----------1010101010101010-----------------------------------|
C||--88888888-1010101010101010-10101010101010101010101010101010--| x2
G||--88888888-8-8-8-8-8-8-8-8--10101010101010101010101010101010--|
C||--88888888------------------10101010101010101010101010101010--|


Guitar 1:
D||--------13~---------13~---------13~---13--12--|--------------------------------------------15--|
A||-----10----------10----------10-------10--8---|--10/13-13-13-10/13-13-13-10/13-13-13-13-13-----|
F||--------------------------------------x---x---|------------------------------------------------|
C||--12----------12----------12----------12--10--|------------------------------------------------|
G||----------------------------------------------|------------------------------------------------|
C||----------------------------------------------|------------------------------------------------|


D||------------------------------------------------------------------------|
A||------------------------------------------------------------------------|
F||--10101010101010101010101010101010-1212121212121212-x-1212-x-12-x-1212--|
C||--10101010101010101010101010101010-1010101010101010-x-1010-x-10-x-1010--|
G||------------------------------------------------------------------------|
C||------------------------------------------------------------------------|


Guitar 2:
D||-------------------------------------------------------------------------------------------|
A||-------------------------------------------------------------------------------------------|
F||-------------------------------------------------------------------------------------------|
C||--8888888888888888-33333333-22222222-0000000000000000-1010101010101010-x-1010-x-10-x-1010--|
G||--8888888888888888-33333333-22222222-0000000000000000-1010101010101010-x-1010-x-10-x-1010--|
C||--8888888888888888-33333333-22222222-0000000000000000-1010101010101010-x-1010-x-10-x-1010--|



Bridge
Guitar 1:
D||------------------------------------------------------------------------------------------|
A||------------------------------------------------------------------------------------------|
F||------------------------------------------------------------------------------------------|
C||--33--333--333--333--300--000--000--000--088--888--888--888--888--888--81010--1010101010--| x2
G||--33--333--333--333--300--000--000--000--088--888--888--888--888--888--81010--1010101010--|
C||--33--333--333--333--300--000--000--000--088--888--888--888--888--888--81010--1010101010--|


Guitar 2:
D||---------13~----13~----12~--|
A||----------------------------|
F||--10~-----------------------|
C||----------------------------| x7
G||----------------------------|
C||----------------------------|


D||---------13~----12~--1212~--12121212~--|
A||---------------------------------------|
F||--10~----------------------------------|
C||---------------------------------------|
G||---------------------------------------|
C||---------------------------------------|



Interlude
Guitar 1:
D||------8~--------8~--------8~--------|
A||----6---------6---------6-----------|
F||--7---------9-------------------5~--|
C||----------------------8-------------|
G||------------------------------------|
C||------------------------------------|


Guitar 1:
D||------------------------------------|
A||------------------------------------|
F||------------------------------------|
C||-------------------------------10~--|
G||-------------------------------10~--|
C||-------------------------------10~--|
                                  .



Chorus
Guitar 1:
D||----------------------------------------------------------------------|
A||----------------------------------------------------------------------|
F||--1414141414141414-1010101010101010-12121212121212121212121212121212--|
C||--1515151515151515-1010101010101010-10101010101010101010101010101010--| x2
G||----------------------------------------------------------------------|
C||----------------------------------------------------------------------|


Guitar 2:
D||--------------------------------------------------------------|
A||--------------------------------------------------------------|
F||-----------1010101010101010-----------------------------------|
C||--88888888-1010101010101010-10101010101010101010101010101010--| x2
G||--88888888-8-8-8-8-8-8-8-8--10101010101010101010101010101010--|
C||--88888888------------------10101010101010101010101010101010--|


Guitar 1:
D||--------13~---------13~---------13~---13--12--|--------------------------------------------15--|
A||-----10----------10----------10-------10--8---|--10/13-13-13-10/13-13-13-10/13-13-13-13-13-----|
F||--------------------------------------x---x---|------------------------------------------------|
C||--12----------12----------12----------12--10--|------------------------------------------------|
G||----------------------------------------------|------------------------------------------------|
C||----------------------------------------------|------------------------------------------------|


D||-----------------------------------------------------------------------|
A||-----------------------------------------------------------------------|
F||--10101010101010101010101010101010-1212121212121212-1212-x-x-1212-x-x--|
C||--10101010101010101010101010101010-1010101010101010-1010-x-x-1010-x-x--|
G||-----------------------------------------------------------------------|
C||-----------------------------------------------------------------------|


Guitar 2:
D||------------------------------------------------------------------------------------------|
A||------------------------------------------------------------------------------------------|
F||------------------------------------------------------------------------------------------|
C||--8888888888888888-33333333-22222222-0000000000000000-1010101010101010-1010-x-x-1010-x-x--|
G||--8888888888888888-33333333-22222222-0000000000000000-1010101010101010-1010-x-x-1010-x-x--|
C||--8888888888888888-33333333-22222222-0000000000000000-1010101010101010-1010-x-x-1010-x-x--|



Outro
Guitar 1:
D||------------------------------------------|-------------------------------------------|
A||------------------------------------------|-------------------------------------------|
F||------------------------------------------|-------------------------------------------|
C||------10-----10------------------7-8-7----|------10-----10------------------7-8-7-----| x2
G||----8------8------8-----8-10-----------8--|----8------8------8-----8-10-----------10--|
C||--0------0------0----10------10-----------|--8------8------8----10------10------------|


Guitar 2:
D||-------------------------------------------------------|
A||-------------------------------------------------------|
F||-------------------------------------------------------|
C||--00000000-1010101010101010-88888888-1010101010101010--|
G||--00000000-1010101010101010-88888888-1010101010101010--|
C||--00000000-1010101010101010-88888888-1010101010101010--|


D||-------------------------------------------------------|
A||-------------------------------------------------------|
F||--77777777-99999999-1010101010101010-1212121212121212--|
C||--xxxxxxxx-xxxxxxxx-x-x-x-x-x-x-x-x--x-x-x-x-x-x-x-x---|
G||--55555555-77777777-8-8-8-8-8-8-8-8--1010101010101010--|
C||-------------------------------------------------------|




Tablature Legend
----------------
 h   - hammer-on
 p   - pull-off
 b   - bend
 r   - release bend
 *   - pinch harmonic
 '   - natural harmonic
 x   - mute note
 .   - palm mute
 /   - slide down
 \   - slide up
Добавлено: 31.08.2013
Другие материалы по этой песне:
  • Аккорды и текст

Страница создана 28.07.2013
http://primanota.ru/conditions/love-elusive-chords.htm
Привет, Гость.
Предлагаем пройти революционный курс по гитаре.
Подарок от PrimaNota.Ru, забирай!