PrimaNota.ru - самый крупный в мире бесплатный архив песенных текстов, аккордов, табулатур и нот


Conditions - A Knight In Shining Amore - таба, видео

Регистрация Запомнить меня
Войти через:  Facebook Google Twitter Vk Yandex Mail.ru

Conditions - A Knight In Shining Amore - таба, видео

Печатать
Просмотров: 128
                             A knight in shining Amore - Conditions
-----------------------------------------------------------------------------
Tabbed by:roro642
Email:r642916@hotmail.com

Tuning:Standard

| /   slide up
| \   slide down
| h   hammer-on
| p   pull-off
| ~   vibrato
| +   harmonic
| x   Mute note
| b   Bend

Guitar 1  introx2   listen for strumming pattern
e|----------------------------------------------------------------------------|
B|----------------------------------------------------------------------------|
G|---10-------13----------8---------------------------------------------------|
D|---8--------11----------6---------------------------------------------------|
A|---6--------9-----------4---------------------------------------------------|
E|----------------------------------------------------------------------------|

Guitar 2: after guitar 1 intro: listen closely for the notes its correct
repeat ?
e|-----------4----------4-----------------------------------------------------|
B|-6--4h6------6---4-h6------4-h6-7--------------4----------6---------6-------|
G|--6------------6--------------------6----5h6-----6---6h8-------6h8----------|
D|--------------------------------------4-------------------------------------|
A|----------------------------------------------------------------------------|
E|----------------------------------------------------------------------------|
   Verse x2 listen to song for strumming pattern
e|----------------------------------------------------------------------------|
B|----------------------------------------------------------------------------|
G|--6---------5-------------6----------8--------------------------------------|
D|--x---x-14--x----x8-------x---x12----x---x8---------------------------------|
A|--4---------3-------------4----------6--------------------------------------|
E|----------------------------------------------------------------------------|

Chorus
e|-----------4----------4-----------------------------------------------------|
B|-6--4h6------6---4-h6------4-h6-7--------------4----------6---------6-------|
G|--6-----------6---------------------6----5h6-----6---6h8-------6h8----------|
D|--------------------------------------4-------------------------------------|
A|----------------------------------------------------------------------------|
E|----------------------------------------------------------------------------|

 Verse 2   x2 listen for strumming
e|----------------------------------------------------------------------------|
B|----------------------------------------------------------------------------|
G|--6---------5-------------6----------8--------------------------------------|
D|--x---x-14--x----x8-------x---x12----x---x8---------------------------------|
A|--4---------3-------------4----------6--------------------------------------|
E|----------------------------------------------------------------------------|


Chorus again

then: (best part)

e|----------------------------------------------------------------------------|
B|---6------8-----------------------------------------------------------------|
G|---x-x3---x-x3--------------------------------------------------------------|
D|---4------6-----------------------------------------------------------------|
A|----------------------------------------------------------------------------|
E|----------------------------------------------------------------------------|

repeat this as much as necessary. listen to the song
e|----------------------------------------------------------------------------|
B|----------------------------------------------------------------------------|
G|---5p--6p--10p--8p----------------------------------------------------------|
D|----------------------------------------------------------------------------|
A|----------------------------------------------------------------------------|
E|----------------------------------------------------------------------------|

chorus
Добавлено: 27.04.2012
Другие материалы по этой песне:
  • Аккорды и текст

Страница создана 27.04.2012
http://primanota.ru/conditions/a-knight-in-shining-amore-chords.htm
Привет, Гость.
Предлагаем пройти революционный курс по гитаре.
Подарок от PrimaNota.Ru, забирай!