PrimaNota.ru - самый крупный в мире бесплатный архив песенных текстов, аккордов, табулатур и нот


Condemned By Faith - Against All Odds - бас-таба, видео

Регистрация Запомнить меня
Войти через:  Facebook Google Twitter Vk Yandex Mail.ru

Condemned By Faith - Against All Odds - бас-таба, видео

Печатать
Просмотров: 86
-------------------------------------------------------------------------------
                             Against All Odds - Condemned By Faith
-------------------------------------------------------------------------------
Tabbed by: Nathaniel Smith
E-mail: cbfaith2013@gmail.coom

Tuning: Drop B (B,F#,B,E)
  
  (00:16) Intro
G|---------------------------------------------------------------------------|
D|---------------------------------------------------------------------------|
A|----------------3--------------------3-------------------------------------|
E|-0000--3/5--00----/5--0000--3/5--00----/5---0000---3/0-00---3-3------------|
                                                                                x2
G|---------------------------------------------------------------------------|
D|---------------------------------------------------------------------------|
A|----------------3-------------------3--------------------------------------|
E|-0000--3/5--00---/5--0000--3/5--00----/5---0000----5-5-3-3-----------------|
  
  (00:30) 
G|---------------------------------------------------------------------------|
D|---------------------------------------------------------------------------|
A|---------------------------------------------------------------------------|x8
E|-000-0-00000-000-----------------------------------------------------------|
  
  (00:41) Verse 1
G|---------------------------------------------------------------------------|
D|---------------------------------------------------------------------------|
A|----------------1----------------------------------------------------------| x4
E|-1/0-000---0-0-----0000----3333--1111--------------------------------------|
  
  (00:52)(Repeat Intro)

  (01:06)Chorus
G|---------------------------------------------------------------------------|
D|---------------------------------------------------------------------------|
A|---------------------------------------------------------------------------|
E|-0-0-0-0-0-0-0-0-5-5-5-5-8-8-8-8-7-7-7-7-3-3-3-3-1-1-1-1-------------------|
                                                                              x2
G|---------------------------------------------------------------------------|
D|---------------------------------------------------------------------------|
A|---------------------------------------------------------------------------|
E|-0-0-0-0-0-0-0-0-5-5-5-5-8-8-8-8-7-7-7-7-00-1-1-00-1-00-1------------------|
  
  (01:30)Verse 2 (Repeat Verse 1)

  (01:42)Verse 3
G|---------------------------------------------------------------------------|
D|---------------------------------------------------------------------------|
A|--------------------------------------1------------------------------------|x4
E|--3333333-22222222-33333333--1/0-00----------------------------------------|

  (01:55)(Repeat Chorus)

  (2:19)Buildup
G|---------------------------------------------------------------------------|
D|---------------------------------------------------------------------------|
A|---------------------------------------------------------------------------|
E|-1---------1--------0---------3--------------------------------------------|

  (02:32)Breakdown
G|---------------------------------------------------------------------------|
D|---------------------------------------------------------------------------|
A|----------1--------------------------6666----------------------------------|
E|-1/0-000-----3---1--0---00--8/0--00----------------------------------------|
                                                                              x2
G|---------------------------------------------------------------------------|
D|---------------------------------------------------------------------------|
A|----------1--------------77-66---------------------------------------------|
E|-1/0-000-----3---111111--------77------------------------------------------|
  
  (2:58)Breakdown 2
G|---------------------------------------------------------------------------|
D|---------------------------------------------------------8-8---------------|
A|----------------------------8888----------------------------10-10-8-8-7-7--|
E|-0-4-3-0-1-3-0---0-1-0-3-0-------0-4-3-0-1-3-0----0-1-0--------------------|x4

 (Repeat Chorus)

| /  slide up
| \  slide down
| h  hammer-on
| p  pull-off
| ~  vibrato
| +  harmonic
| x  Mute note
===============================================================================

Copyright © 2015 by Nathaniel Smith

All rights reserved. No part of this publication may be reproduced, distributed, or transmitted in any form or 
by any means, including photocopying, recording, or other electronic or mechanical methods, without the prior 
written permission of the publisher, except in the case of brief quotations embodied in critical reviews and 
certain other noncommercial uses permitted by copyright law. For permission requests, write to the publisher, 
addressed "Attention: Permissions Coordinator," at the address below.
Добавлено: 17.12.2015
Другие материалы по этой песне:
  • Аккорды и текст

Страница создана 17.12.2015
http://primanota.ru/condemned-by-faith/against-all-odds-chords.htm
Привет, Гость.
Предлагаем пройти революционный курс по гитаре.
Подарок от PrimaNota.Ru, забирай!