PrimaNota.ru - самый крупный в мире бесплатный архив песенных текстов, аккордов, табулатур и нот


Concretes - Say Something New - аккорды и текст, видео

Регистрация Запомнить меня
Войти через:  Facebook Google Twitter Vk Yandex Mail.ru

Concretes - Say Something New - аккорды и текст, видео

Печатать
Просмотров: 153
Авторы музыки: Martin Hansson, Per Nyström, Ludvig Rylander, Lisa Milberg, Victoria Bergsman, Daniel Värjö, Maria Eriksson, Ulrik Karlsson
Авторы текста: Victoria Bergsman
Say Something New
Concretes
Pretty easy song by an Awesome Band!!!
    
     If you think anything needs changing then please comment :D
There is also the tab of the guitar picking at the end of the page 
          Julia x



The Concretes
Say Something New

Intro:

C  ( Times 2 )    F  ( Times 2 )
 
Repeated 3 times

Verse:
 
C         
     what a strange thing to say
        F                         C             F
 as you pass me on your way out.
      C                               F
 and all the things I had in mind for you and me.
               C                                 F
 say something new, say something new, something new-

C          F     ( Times 2 )

C
    what a strange thing to do
        F
 as you passed me
                         C               F
 on your way out, on your way out.
      C                              F     ( PAUSE )
 and all the things I had in mind for you and me.
               C                                 F 
 say something new, say something new, something new-
                C                                   F
 something you do, something you do, something you do-



C           F    ( Times 2 )



             C                                 F 
 say something new, say something new, something new-
                C                                   F
 something you do, something you do, something you do-
                C                                   F
 say something new, say something new, whoa about you-
             C               F
 whoa about you-,whoa about you-


C         F    ( Untill End )






Tab:


   ( C major shape )                    ( C minor 7 - i use my little finger
                                           on the 3rd fret)
e|---------------------------------------------------------------------------|
B|------------1-------------1-----------------1----------------1-------------|
G|--------------------0---------------------------------3--------------------|
D|---------------------------------------------------------------------------|
A|---------------------------------------------------------------------------|
E|----3-----------------------------------3----------------------------------|

     ( i keep in the c major shape, but move my middle finger down 1 string)
e|---------------------------------------------------------------------------|
B|------------1---------------1--------------------1-----------1-------------|
G|------------------2-------------------------------------2------------------|
D|---------------------------------------------------------------------------|
A|---------------------------------------------------------------------------|
E|-----3-------------------------------------3-------------------------------|

Добавлено: 24.10.2013
Вам также может быть интересно:
Другие материалы по этой песне:
  • Аккорды и текст

Страница создана 24.10.2013
http://primanota.ru/concretes/say-something-new-chords.htm
Привет, Гость.
Предлагаем пройти революционный курс по гитаре.
Подарок от PrimaNota.Ru, забирай!