PrimaNota.ru - самый крупный в мире бесплатный архив песенных текстов, аккордов, табулатур и нот


Conan - Total Conquest - таба, видео

Регистрация Запомнить меня
Войти через:  Facebook Google Twitter Vk Yandex Mail.ru

Conan - Total Conquest - таба, видео

Печатать
Просмотров: 48
Авторы музыки: Conan
Авторы текста: Conan
F STANDARD TUNING NOT B TUNING = (F A# D# G# C F)

Intro (with Flanger/Phaser)
|-------------------------------------------------|
|-------------------------------------------------|
|-------------------------------------------------|
|-------------------------------------------------|
|-------------------------------------------------|
|---4-4-4-4-4-4-4-4-4-4-4-4-4-4-4-4-4-4-4-4-4 x74-|

Next, figure out how many times to do it in the song
|--------------------------------|-------------------------|
|--------------------------------|-------------------------|
|--------------------------------|-------------------------|
|--------------------------------|-------------------------|
|---6--6-6--6--6--6-6--6--6-6--6-|-4--4-4--4--4--4-4--4--4-|
|---4--4-4--4--4--4-4--4--4-4--4-|-2--2-2--2--2--2-2--2--2-|x2

|------------------------------------|
|---------------------------------3*-|
|---------------------------------3*-|
|---------------------------------3*-|
|------------------------------------|
|---2--2--2-2--2--2--2-2--2-3-2-3----|
                                   Natural harmonic @ 3rd fret
next
|------------------------------------------------------|
|------------------------------------------------------|
|------------------------------------------------------|
|------------------------------------------------------|
|-4--4-4--4--4--4-4--4--4-5-4-5--5-4--4-4--4--4--4-4--4|
|-2--2-2--2--2--2-2--2--2-3-2-3--3-2--2-2--2--2--2-2--2|

After
|-------------------------|   |--------------------------------------------------------------------|
|-------------------------|   |--------------------------------------------------------------------|
|-------------------------|   |--------------------------------------------------------------------|
|-12/11/10/9-9------------|   |-7-6--2--2-2--9----9--9-9--9-9--9-2--2-2-9----9--9-9--8-7-8--2--2-2-|
|-10/-9/-8/7-7------------|   |-5-4--2--2-2--7----7--7-7--7-7--7-2--2-2-7----7--7-7--6-5-6--2--2-2-|
|-------------------------|x2 |------0--0-0----------------------0--0-0---------------------0--0-0-|
                                     *  * *                      *  * *                     *  * *
|-------------------------------------------------|
|-------------------------------------------------|
|-------------------------------------------------|
|-9----9----9--9-9--9-2--2-2-9----9--9-9-12-11-10-|
|-7----7----7--7-7--7-2--2-2-7----7--7-7-10--9--8-|
|---------------------0--0-0----------------------|

|------------------------------------------------------|
|------------------------------------------------------|
|------------------------------------------------------|
|------------------------------------------------------|
|-4--4-4--4--4--4-4--4--4-5-4-5--5-4--4-4--4--4--4-4--4|
|-2--2-2--2--2--2-2--2--2-3-2-3--3-2--2-2--2--2--2-2--2|

|------------------------------------------------------------------|
|------------------------------------------------------------------|
|------------------------------------------------------------------|
|-2--2-2--9----9----9--9-9--9-2--2-2-9----9--9-9--10-9-10---2--2-2-|
|-2--2-2--7----7----7--7-7--7-2--2-2-7----7--7-7--8--7--8---2--2-2-|
|-0--0-0----------------------0--0-0------------------------0--0-0-|

|-------------------------------------------------|
|-------------------------------------------------|
|-------------------------------------------------|
|-9----9----9--9-9--9-2--2-2-9----9--9-9-12-11-10-|
|-7----7----7--7-7--7-2--2-2-7----7--7-7-10--9--8-|
|---------------------0--0-0----------------------|

end riff
|----------------------------------------|
|----------------------------------------|
|-9 10-----11\10--10---10\9--------------|
|-7/9-------9\-8---8----8\7--------------|
|-----00000-----00---00-----000000000000-| repeat
Добавлено: 20.12.2015
Вам также может быть интересно:
Другие материалы по этой песне:
  • Аккорды и текст

Страница создана 19.12.2015
http://primanota.ru/conan/total-conquest-chords.htm
Привет, Гость.
Предлагаем пройти революционный курс по гитаре.
Подарок от PrimaNota.Ru, забирай!