PrimaNota.ru - самый крупный в мире бесплатный архив песенных текстов, аккордов, табулатур и нот


Conan - Golden Axe - таба, видео

Регистрация Запомнить меня
Войти через:  Facebook Google Twitter Vk Yandex Mail.ru

Conan - Golden Axe - таба, видео

Печатать
Просмотров: 55
NOT DROP A TUNING!!!!! IT WOULD'NT LET ME PUT A CUSTOM TUNING UNDER THE ADDITIONAL INFO

REAL TUNING ---> F C F A# D G (DROP F)

2 MAIN PARTS 

PART 1
|--------------------------|
|----------0--------------0|
|--------------------------|
|--------------------------|
|-9-0----9------9-0----9---|
|--------------------------|

PART 2
|------------------|
|------------------|
|------------------|
|----------5-------|
|-9-0----7-----0---|
|------------------|

NOT HARD AT ALL, JUST GET THE TIMING DOWN

PS - I KNOW THERE ARE A LOT OF OTHER WAYS TO PLAY THIS, THIS IS MY VERSION.
Добавлено: 20.07.2015
Вам также может быть интересно:
Другие материалы по этой песне:
  • Аккорды и текст

Страница создана 20.07.2015
http://primanota.ru/conan/golden-axe-chords.htm
Привет, Гость.
Предлагаем пройти революционный курс по гитаре.
Подарок от PrimaNota.Ru, забирай!