PrimaNota.ru - самый крупный в мире бесплатный архив песенных текстов, аккордов, табулатур и нот


Comrade - Gimme Some Fire - аккорды и текст, видео

Регистрация Запомнить меня
Войти через:  Facebook Google Twitter Vk Yandex Mail.ru

Comrade - Gimme Some Fire - аккорды и текст, видео

Печатать
Просмотров: 122
Уроки эстрадного вокала в Санкт-Петербурге
Gimme Some Fire
Comrade
Song: Gimme Some Fire
Artist: Comrade
Album: Red no. 44
 
This song is played in a reggae style, meaning that all the chords are
played on the offbeat.
I don^Òt know the very last bit, but this is good anyhow.
 

Verse:
E--8--8--8--8-\--5-5-5-5\--3-3-3-3\--1-1-1-1---------------------
B--8--8--8--8-\--5-5-5-5\--3-3-3-3\--1-1-1-1---------------------
G--9--9--9--9-\--5-5-5-5\--4-4-4-4\--2-2-2-2---------------------
D--10-10-10-10\--5-5-5-5\--5-5-5-5\--1-1-1-1---------------------
A--10-10-10-10\--7-7-7-7\--5-5-5-5\--3-3-3-3---------------------
E--8--8--8--8-\--5-5-5-5\--3-3-3-3\--1-1-1-1---------------------
   
 
Chorus:  And I said...       ...nothin but the rain
E-3--3\1--1/3--3\1--1/3--3\1--1--1-1--3--------------------------
B-4--4\3--3/4--4\3--3/4--4\3--3--1-1--3--------------------------
G-5--5\3--3/5--5\3--3/5--5\3--3--2-2--4--------------------------
D-5--5\3--3/5--5\3--3/5--5\3--3--3-3--5--------------------------
A-3--3\1--1/3--3\1--1/3--3\1--1--3-3--5--------------------------
E--------------------------------1-1--3--------------------------
 

Verse x 2
Chorus x 2
Verse x 2
Chorus x 2
Verse x 2
Chorus x 2
Verse x 2
Chorus x 4
End on a Cmaj
 

-tabbed by wickedbrethren54

     
Добавлено: 05.12.2013
Другие материалы по этой песне:
  • Аккорды и текст

Страница создана 11.08.2013
http://primanota.ru/comrade/gimme-some-fire-chords.htm
Привет, Гость.
Предлагаем пройти революционный курс по гитаре.
Подарок от PrimaNota.Ru, забирай!