PrimaNota.ru - самый крупный в мире бесплатный архив песенных текстов, аккордов, табулатур и нот


Compay Segundo - Pobre Corazon - таба, видео

Регистрация Запомнить меня
Войти через:  Facebook Google Twitter Vk Yandex Mail.ru

Compay Segundo - Pobre Corazon - таба, видео

Печатать
Просмотров: 124
Уроки эстрадного вокала в Санкт-Петербурге
Artist: Compay Segundo
Date: December 21th, 2003
Title: Pobre Corazón
Album: Available on « Hecho en Cuba »
       or « A Coleccion Cubana »
Tabbed by: Jean-François Pérusse
E-mail: jfperusse@hotmail.com
 
This is only the intro (solo) part, and also my first tab!
(I hope it sounds great to you!!!)
 
If you know the lyrics to the song, I would really like to
have them!
 
Thanks and have fun!
 
E|--00--12------12--13--12--------------12----12----------
B|--------------------------15------15------------15--13--
G|--------------------------------------------------------
D|--------------------------------------------------------
A|--------------------------------------------------------
E|--------------------------------------------------------
 
E|------12------------------------------------------------
B|--13------15--13--12--15--13--12------13--12------------
G|----------------------------------14----------14--13----
D|--------------------------------------------------------
A|--------------------------------------------------------
E|--------------------------------------------------------
 
E|--------------------------------------------------------
B|--12----------------------------------------------------
G|------13--------------------------12--15----12--12------
D|----------14----14--12--11----14--------------------15--
A|--------------------------------------------------------
E|--------------------------------------------------------
 
E|--------------------------------------------------------
B|----------------------------------13--12----------------
G|--------------------------11--14----------14--13--------
D|--15--15--14--13------13--------------------------------
A|------------------14------------------------------------
E|--------------------------------------------------------
 
E|------------------13--------------------12--15--13------
B|----------12--15--------15--14------14------------------
G|------13------------------------14----------------------
D|--14----------------------------------------------------
A|--------------------------------------------------------
E|--------------------------------------------------------
 
E|--12------------12--13--12------------------------------
B|------15----15--------------15--13--12----12--13--15----
G|--------------------------------------------------------
D|--------------------------------------------------------
A|--------------------------------------------------------
E|--------------------------------------------------------
 
E|--------------------12----------------------------------
B|----------12--13------------13--13--12----------12--15--
G|--12--14----------------12--------------14--13----------
D|--------------------------------------------------------
A|--------------------------------------------------------
E|--------------------------------------------------------
 
E|--13--12------------------------------------------------
B|----------15--13--12--------------12--13--12--13--15----
G|----------------------14--13--14------------------------
D|--------------------------------------------------------
A|--------------------------------------------------------
E|--------------------------------------------------------
 
E|--12----------------------------------------------------
B|------13------------------------------------------------
G|----------14--------------------------------------------
D|--------------------------------------------------------
A|--------------------------------------------------------
E|--------------------------------------------------------
 
 

     
Добавлено: 03.07.2013
Другие материалы по этой песне:
  • Аккорды и текст

Страница создана 03.07.2013
http://primanota.ru/compay-segundo/pobre-corazon-chords.htm
Привет, Гость.
Предлагаем пройти революционный курс по гитаре.
Подарок от PrimaNota.Ru, забирай!