PrimaNota.ru - самый крупный в мире бесплатный архив песенных текстов, аккордов, табулатур и нот


Company Of Thieves - Under The Umbrella - таба, видео

Регистрация Запомнить меня
Войти через:  Facebook Google Twitter Vk Yandex Mail.ru

Company Of Thieves - Under The Umbrella - таба, видео

Печатать
Просмотров: 147
Company Of Thieves- Under The Umbrella Solo

It's not perfect but it's close. Play it with a wah wah pedal.

Chords:

          A   G/D   F#/D   Aaug
   e -----0-----------------------------------------------------------------|
   b -----2------------------2----------------------------------------------|
   G -----2----2------2------2----------------------------------------------|
   D -----2----0------0------3----------------------------------------------|
   A -----0----x------x------4----------------------------------------------|
   E ----------3------2-----------------------------------------------------|


Solo:
             A                                          G/D

   e ----------------------------8----------------------7b8--5--7/9---5-----|
   b --------8b10--8b10----8b10-----8b10----10r8p5-8------------------------|
   G -----------------------------------------------------------------------|
   D -----------------------------------------------------------------------|
   A -12\-------------------------------------------------------------------|
   E -----------------------------------------------------------------------|

                                   F#/D

   e --5--------------------------------------------------------------------|
   b -----8-7-5-------------------------5h8p5--8p7p5------------------------|
   G ------------5h6------------5--7b9----------------8p7p5---7p5-----5---4-|
   D -----------------7------7-------------------------------------7--------|
   A -----------------------------------------------------------------------|
   E -----------------------------------------------------------------------|

       Aaug                                 A

   e --5-------7--------8--------10---------15b17--15b17--15-12-15-12h15p12-|
   b --8b10----10b12----11b13----13b15--------------------------------------|
   G -----------------------------------------------------------------------|
   D -----------------------------------------------------------------------|
   A -----------------------------------------------------------------------|
   E -----------------------------------------------------------------------|

                              G/D

   e --12h15p12--12-------------------------------------15b17r15~-----------|
   b ---------------------13--15b17r15p13--15b17r15p13----------------------|
   G -----------------/14---------------------------------------------------|
   D -----------------------------------------------------------------------|
   A -----------------------------------------------------------------------|
   E -----------------------------------------------------------------------|

       F#/D                                     Aaug

   e --------15--------15--------15--------15-------------------------------|
   b --16h17-----16h17-----16h17-----16h17------/888888888888/101010101010--|
   G -------------------------------------------/999999999999/111111111111--|
   D -----------------------------------------------------------------------|
   A -----------------------------------------------------------------------|
   E -----------------------------------------------------------------------|

                      A

   e -----------------12----------------------------------------------------|
   b -101010101010----15b17-------------------------------------------------|
   G -111111111111----------------------------------------------------------|
   D -----------------------------------------------------------------------|
   A -----------------------------------------------------------------------|
   E -----------------------------------------------------------------------|

Well that's it. Just so you know those are 10's and 11's at the end of
it.

Key:

   h-hammer on
   p-pull off
   b-bend
   r-release
   /-slide up
   \-slide down
   ~-hold note
   x-muted string

The End!
Добавлено: 10.07.2012
Другие материалы по этой песне:
  • Аккорды и текст

Страница создана 02.06.2012
http://primanota.ru/company-of-thieves/under-the-umbrella-chords.htm
Привет, Гость.
Предлагаем пройти революционный курс по гитаре.
Подарок от PrimaNota.Ru, забирай!