PrimaNota.ru - самый крупный в мире бесплатный архив песенных текстов, аккордов, табулатур и нот


Company Of Thieves - Syrup - аккорды и текст, видео

Регистрация Запомнить меня
Войти через:  Facebook Google Twitter Vk Yandex Mail.ru

Company Of Thieves - Syrup - аккорды и текст, видео

Печатать
Просмотров: 83
Syrup
Company Of Thieves
My guitar interpretation of

Syrup by Company of Thieves

Capo on II

Chords Used: All chords are relative to the capo

(Note: I don't know some of the chord names so please bear with me if I name it)

    Am7    F*    C*    F     Em    F    C    Am

|----0-----0-----0-----0-----0-----0-----0------0----|
|----1-----1-----1-----1-----0-----0-----0------1----|
|----0-----2-----0-----2-----0-----2-----0------2----|
|----2-----0-----2-----3-----2-----3-----2------2----|
|----0-----x-----3-----3-----2-----3-----3------0----|
|----x-----x-----3-----x-----0-----0-----0------x----|

I:
F*                   Am7         C*         F
   Days and days and dollar bags of time
   F        C            Am7
   feel the everlasting tide
F*                 Am7        C*        F
   Rows of houses, all are painted white
 F      C(break)
   I lost you in the dead of night

Chorus:
C*          Am         Em          F               C*
Your love syrup, so sweet, I feel dangerous indeed
          Am           Em-F     Am(break)
Your love syrup, so sweet

and then...

|--------------------0-x-----------------------0-x-----0--0----x-x----------|
|--------------------1-x-----------------------1-x-----1--1----x-x----------|
|--------------------0-x-----------------------2-x-----2--2----x-x----------|
|----0--2--0---------2-x-------------0--2--0---3-x-----3--3----x-x----------|
|-------------3--0---0-x----0--2--3------------3-x-----3--3----x-x--------0-|
|--------------------x-------------------------x-x-----x--x----x-x--0--3----|

II: Just do the same as I

then Chorus


Bridge

C*
I know I made a mistake because I missed you
F
On the way down, on the way down
C*
I know I made a mistake because I missed you
F
On the way down, on the way down
C*
I know I made a mistake because I missed you
F
I still do, I still do, I still do
C*
I know I made a mistake because I missed you
F                              C*
On the way down on the way down
          Am           Em          F              C*
Your love syrup, so sweet, I feel dangerous indeed
          Am           Em
Your love syrup, so sweet
                    F
And it's so sweet, Ah ha and it's so sweet

C*          Am
  But it's a damn shame!
  Em - F
  It's a damn shame
C*         Am                   Em (Em-F-Am-C*)
  It's a damn shame we couldn't be...




Sorry its pretty messy but if you can play it on time its gonna be pretty sweet 
like syrup sweet...


my first tab.. hope everyone likes it somehow.


Ciao.
Добавлено: 25.07.2013
Другие материалы по этой песне:
  • Аккорды и текст

Страница создана 25.07.2013
http://primanota.ru/company-of-thieves/syrup-chords.htm
Привет, Гость.
Предлагаем пройти революционный курс по гитаре.
Подарок от PrimaNota.Ru, забирай!