PrimaNota.ru - самый крупный в мире бесплатный архив песенных текстов, аккордов, табулатур и нот


Company Of Thieves - Past The Sleep - таба, видео

Регистрация Запомнить меня
Войти через:  Facebook Google Twitter Vk Yandex Mail.ru

Company Of Thieves - Past The Sleep - таба, видео

Печатать
Просмотров: 69
Уроки эстрадного вокала в Санкт-Петербурге
Tabbed by: Marco G.
Email: marc0oleet@gmail

Note: I couldn't find any Past the Sleep tabs so I made my own version.
I simplified everything by using a capo and I'm glad everything is
accurate if not perfect. My 1st tab! enjoy ;)

This song is dedicated to Kimberly B.

Matt B., lets jam this song soon!

-Standard Tuning
-Capo 2nd fret


|-----------------4-------------2-------------4----------------------|
|---------------2---2---2-----2---2---2-----2---2---2---4-5-4-5-4----|
|-------------4-------4-----4-------4-----4-------4------------------|
|--------------------------------------------------------------------|
|--------------------------------------------------------------------|
|-----------5-------------5-------------5-------------5--------------|

Across the ocean...                    Under the sand..

|---------------------------------------------|
|---------------------------------------------|
|---8---8-8-8-8-9---    --16----16--14--13----|
|---9---9-9-9-9-9--- 3x ----------------------|
|---7---7-7-7-7-7---    --14----14--12--11----|
|---------------------------------------------|


|---------4-------------2-------------4---------------------------------------------|
|-------2---2---2-----2---2---2-----2---2---2---4-5-4-5-4---------------------------|
|-----4-------4-----4-------4-----4-------4-------------------8---8-8-8-8-9---    --|
|-------------------------------------------------------------9---9-9-9-9-9--- 2x --|
|-------------------------------------------------------------7---7-7-7-7-7---    --|
|---5-------------5-------------5-------------5-------------------------------------|


|---------4-------------2-------------4---------------------------------------------|
|-------2---2---2-----2---2---2-----2---2---2---4-5-4-5-4---------------------------|
|-----4-------4-----4-------4-----4-------4-------------------8---8-8-8-8-9---    --|
|-------------------------------------------------------------9---9-9-9-9-9--- 2x --|
|-------------------------------------------------------------7---7-7-7-7-7---    --|
|---5-------------5-------------5-------------5-------------------------------------|


|------------------------------------------------------------------------------------------|
|------------------------------------------------------------------------------------------|
|---8---8-8-8-8-9--    --8---8-8-8-8-9--    --4--4444444----6--666666----444444--66666666--|
|---9---9-9-9-9-9-- 2x --9---9-9-9-9-9-- 2x --6--6666666----7--777777----666666--44444444--|
|------------------    -----------------    --6--6666666----7--777777----666666--55555555--|
|---8---8-8-8-8-8--------9---9-9-9-9-9-----------------------------------------------------|


Chorus:   (Em, G, D, A)

|-------------------------------------------------------|
|-------------------------------5--5555----4--4444------|
|-------------------------------4--4444----4--4444------|
|---------4--4444--------------------------4--4444------|   2x
|---------4--4444----4--4444----------------------------|
|--------------------5--5555----------------------------|

...end up empty..... wanting....wandering..hollow like
    their shells..on seashores from sailors & Tales they'll never..

|----------------------------------------------|
|-------------------------5-5555--4-4444-------|
|-------------------------4-4444--4-4444-44----|
|---------4-4444------------------4-4444-44----|   2x
|---------4-4444--4-4444-----------------55----|
|-----------------5-5555-----------------------|

          Tell to their maidens..

|---------------------------------------------|
|---------------------------------------------|
|---8---8-8-8-8-9---    --16----16--14--13----|
|---9---9-9-9-9-9--- 3x ----------------------|
|---7---7-7-7-7-7---    --14----14--12--11----|
|---------------------------------------------|


|---------4-------------2-------------4---------------------------------------------|
|-------2---2---2-----2---2---2-----2---2---2---4-5-4-5-4---------------------------|
|-----4-------4-----4-------4-----4-------4-------------------8---8-8-8-8-9---    --|
|-------------------------------------------------------------9---9-9-9-9-9--- 2x --|
|-------------------------------------------------------------7---7-7-7-7-7---    --|
|---5-------------5-------------5-------------5-------------------------------------|


|---------4-------------2-------------4---------------------------------------------|
|-------2---2---2-----2---2---2-----2---2---2---4-5-4-5-4---------------------------|
|-----4-------4-----4-------4-----4-------4-------------------8---8-8-8-8-9---    --|
|-------------------------------------------------------------9---9-9-9-9-9--- 2x --|
|-------------------------------------------------------------7---7-7-7-7-7---    --|
|---5-------------5-------------5-------------5-------------------------------------|


|---------4-------------2-------------4---------------------------------------------|
|-------2---2---2-----2---2---2-----2---2---2---4-5-4-5-4---------------------------|
|-----4-------4-----4-------4-----4-------4-------------------8---8-8-8-8-9---    --|
|-------------------------------------------------------------9---9-9-9-9-9--- 2x --|
|-------------------------------------------------------------7---7-7-7-7-7---    --|
|---5-------------5-------------5-------------5-------------------------------------|


|------------------------------------------------------------------------------------------|
|------------------------------------------------------------------------------------------|
|---8---8-8-8-8-9--    --8---8-8-8-8-9--    --4--4444444----6--666666----444444--66666666--|
|---9---9-9-9-9-9-- 2x --9---9-9-9-9-9-- 2x --6--6666666----7--777777----666666--44444444--|
|------------------    -----------------    --6--6666666----7--777777----666666--55555555--|
|---8---8-8-8-8-8--------9---9-9-9-9-9-----------------------------------------------------|


Chorus:  (Em, G, D, A)

|-------------------------------------------------------|
|-------------------------------5--5555----4--4444------|
|-------------------------------4--4444----4--4444------|
|---------4--4444--------------------------4--4444------|   2x
|---------4--4444----4--4444----------------------------|
|--------------------5--5555----------------------------|

...end up empty..... wanting....wandering..hollow like
    their shells..on seashores from sailors & Tales they'll never..

|-----------------------------------------------------------------------------|
|-------------------------5-5555--4-4444---------------------5-5555--4-4444~--|
|-------------------------4-4444--4-4444-44--4-4444----------4-4444--4-4444~--|
|---------4-4444------------------4-4444-44--4-4444------------------4-4444~--|
|---------4-4444--4-4444-----------------55--4-4444--4-4444-------------------|
|-----------------5-5555-----------------------------5-5555-------------------|

          Tell to their maidens..

|---77777777---------------------------------------|
|---99999999--99999999-----------------------------|
|---99999999--88888888--44444444444--666666666666--|
|---99999999--99999999--66666666666--777777777777--| 2x
|---77777777--77777777--66666666666--777777777777--|
|--------------------------------------------------|


|--------------------------------------------|
|--------------------------------------------|
|---8----6----13~-------8----6----13----4~---|
|--------------------------------------------|  2x
|---6----4----11~-------6----4----11----6~---|
|--------------------------------------------|
Добавлено: 02.08.2013
Вам также может быть интересно:
Другие материалы по этой песне:
  • Аккорды и текст

Страница создана 02.08.2013
http://primanota.ru/company-of-thieves/past-the-sleep-chords.htm
Привет, Гость.
Предлагаем пройти революционный курс по гитаре.
Подарок от PrimaNota.Ru, забирай!