PrimaNota.ru - самый крупный в мире бесплатный архив песенных текстов, аккордов, табулатур и нот


Company Of Thieves - In Passing - аккорды и текст, таба, видео

Регистрация Запомнить меня
Войти через:  Facebook Google Twitter Vk Yandex Mail.ru

Company Of Thieves - In Passing - аккорды и текст, таба, видео

Печатать
Просмотров: 114
In Passing
Company Of Thieves
Company Of Thieves-In Passing

Chords:
      Am  B7  C  Em  G  Cm  D7 
   e -0---2---0--0---3--3---2---|
   b -1---0---1--0---3--4---1---|
   G -2---2---0--0---0--5---2---|
   D -2---1---2--2---0--5---0---|
   A -0---2---3--2---2--3-------|
   E ------------0---3----------|

Main Riff:

  e -----3---------5-----2-----------3--------5/7----2--|
  b ----------------------------------------------------|
  G -/4-------4/5--------2------/4-------4/5--5/7----2--|
  D ----------------------------------------------------|
  A ----------------------------------------------------|
  E ----------------------------------------------------|


Intro:
                          Am  B7  C     Am  B7  C  
Ba da ba bada, ba ba bada da           (Main Riff)

Verse:
Am        B7      C            C  G
  One time we were in passing
Am         B7      C             Am  B7  C              G
  I watched the future swirling 'round, around my head
Am B7            C
  This is how it went  (Main Riff)

Chorus:
  Em               B7          Em                     Am       D7
  You and I, both alone sat waiting in lines too long to comprehend
  Em             B7                Em              Am    D7
  We both sat waiting in lines for the rest of our lives
G     B7       Em   C           G             Cm
  Ooh Ooh, Ooh Ooh, forever and after we went on forever

Am        B7       C          C  G 
  One time you were inhaling
Am     B7            C           Am  B7     C
  I saw the smoke went whirling ‘round your heedless head
Am    B7             C
  You bored me to my death


  Em             B7           Em                     Am       D7            
  You and I both alone sat waiting in lines too long to comprehend
  Em             B7                Em              Am    D7
  We both sat waiting in lines for the rest of our lives
G     B7       Em   C           G             Cm
  Ooh Ooh, Ooh Ooh, forever and after we went on forever

(Guitar Solo)

Am                  Em 
  I prefer to sleep alone
                         C                Em
  I prefer to stay right here, don't come searching
Am                     Em
  I prefer the windows up
                       C
  I prefer the fresher air
              Em
  And for the record

   e -----------------------------------------------------------------------|
   b ---5---------5----------3--0--------3--0-----------5--------5----------|
   G -5---2-4--5-----5-2-4--------0-----------2-0-----5---2-4-5----5-2-4----|
   D --------------------------------2------------2-------------------------|
   A -----------------------------------------------------------------------|
   E -----------------------------------------------------------------------|

   e -------------------------------------------0---------------------------|
   b ------0-------0-------0--------------------0---------------------------|
 I G ----0-------0-------0----------------------0---------------------------|
   D -2-------4-------5-----------7---5---4-----2---------------------------|
   A -------------------------------------------2---------------------------|
   E -------------------------------------------0---------------------------|

   e --------------------------------10-------------------------------------|
   b -7--5--7/8--7--8-10--8-10-10b12----12r10---7b8r7-----------------------|
II G -----------------------------------------------------------------------|
   D -----------------------------------------------------------------------|
   A -----------------------------------------------------------------------|
   E -----------------------------------------------------------------------|

Em  B7  Em  B7  (Main Riff)


G     B7       Em   C                               
  Ooh Ooh, Ooh Ooh, forever and
G     B7       Em   C           G             Cm          
  Ooh Ooh, Ooh Ooh, forever and after we went on forever
      G             Cm             G             Cm           Em
  and after we went on forever and after we went on forever


Key:

 B-bend
 r-release
 /-slide up

The End!
Добавлено: 11.04.2012
Другие материалы по этой песне:
  • Аккорды и текст

Страница создана 11.04.2012
http://primanota.ru/company-of-thieves/in-passing-chords.htm
Привет, Гость.
Предлагаем пройти революционный курс по гитаре.
Подарок от PrimaNota.Ru, забирай!