PrimaNota.ru - самый крупный в мире бесплатный архив песенных текстов, аккордов, табулатур и нот


Communions - Cobblestones - таба, видео

Регистрация Запомнить меня
Войти через:  Facebook Google Twitter Vk Yandex Mail.ru

Communions - Cobblestones - таба, видео

Печатать
Просмотров: 96
-------------------------------------------------------------------------------
                             Cobblestones - Communions
-------------------------------------------------------------------------------
Tabbed by: @a_veysey

Tuning: E A D G B e

e|---------------------------------------------------------------------------|
B|-----------1----------------------------------6----------------------------|
G|--------2------2---------------------------7-----7-------------------------|
D|-----3------------3---------------------8-----------8----------------------|
A|--3----------------------------------8-------------------------------------|
E|---------------------------------------------------------------------------|

e|---------1---------------5-----------6-6-6-6-6-6-6-------------------------|
B|---------1---------------6-----------6-6-6-6-6-6-6-------------------------|
G|---------2-----------7---7-----------7-7-7-7-7-7-7-------------------------|
D|-----3---3--------7------7-----------8-8-8-8-8-8-8-------------------------|
A|--3------3---------------5-----------8-8-8-8-8-8-8-------------------------|
E|---------1---------------------------6-6-6-6-6-6-6-------------------------|

The first pattern is done by making a barred F shape then a barred A# shape on sixth 
fret. The second pattern is
a barred F shape again but next is a Dm shape on 5th fret on A string followed by a A# 
shape again.
************************************

| /   slide up
| \   slide down
| h   hammer-on
| p   pull-off
| ~   vibrato
| +   harmonic
| x   Mute note
| b   Bend
| pb  Pre-bend
| br  Bend release
| pbr Pre-bend release
| brb Bend release bend

************************************
Добавлено: 16.08.2015
Другие материалы по этой песне:
  • Аккорды и текст

Страница создана 16.08.2015
http://primanota.ru/communions/cobblestones-chords.htm
Привет, Гость.
Предлагаем пройти революционный курс по гитаре.
Подарок от PrimaNota.Ru, забирай!