PrimaNota.ru - самый крупный в мире бесплатный архив песенных текстов, аккордов, табулатур и нот


Common Rider - Classics Of Love - текст песни, таба, бас-таба, видео

Регистрация Запомнить меня
Войти через:  Facebook Google Twitter Vk Yandex Mail.ru

Common Rider - Classics Of Love - текст песни, таба, бас-таба, видео

Печатать
Просмотров: 170
Уроки эстрадного вокала в Санкт-Петербурге
Common Rider
"Classics of Love"
From The Album "Last Wave Rockers"

b = bend (to next note, indicated with parentheses)


Verse (upstrokes):

|---7--7--7-7--7---7-7--7--9--9--9--|
|---7--7--7-7--7---9-9--9--11-11-11-|
|---8--8--8-8--8---9-9--9--11-11-11-| x4
|---9--9--9-9--9---9-9--9--11-11-11-|
|---9--9--9-9--9---7-7--7--9--9--9--|
|---7--7--7-7--7---7-7--7--9--9--9--|

Prechorus:

|--7--7--7--7---7-7--|
|--7--9--9--9---9-9--|
|--9--9--9--9---9-9--|
|--9--9--9--9---9-9--|
|--9--9--9--9---9-9--|
|--7--7--7--7---7-7--|
|--7--7--7--7---7-7--|


Chorus:

|---------------------|
|---------------------|
|-------------9---11--|
|--9----9-----9---11--|  x4
|--9----9-----7---9---|
|--7----7-------------|


During Interlude:

 Guitar 1:
|-------------|
|-------------|
|--8b(10)r8---|
|-------------|
|-------------|
|-------------|

 Guitar 2:
|--7-7-7---7-7---9--9--9----7-7---|
|--9-9-9---7-7---11-11-11---7-7---|
|--9-9-9---8-8---11-11-11---8-8---|     x4
|--9-9-9---9-9---11-11-11---9-9---|
|--7-7-7---9-9---9--9--9----9-9---|
|--7-7-7---7-7---9--9--9----7-7---|


Guitar 2 (during last chorus)
|-------------------------------------|
|-12-12-12-12-12-12-12-12-12-12-12-12-|
|-------------------------------------|
|-------------------------------------|
|-------------------------------------|
|-------------------------------------|


Song Order:


- Verse x3
- Prechorus
- Chorus
- Verse x2
- Prechorus
- Chorus
- Interlude
- Verse
- Chorus x2
Добавлено: 10.05.2012
Другие материалы по этой песне:
  • Аккорды и текст

Страница создана 28.04.2012
http://primanota.ru/common-rider/classics-of-love-chords.htm
Привет, Гость.
Предлагаем пройти революционный курс по гитаре.
Подарок от PrimaNota.Ru, забирай!