PrimaNota.ru - самый крупный в мире бесплатный архив песенных текстов, аккордов, табулатур и нот


Common Enemy - Late Night Skate - таба, видео

Регистрация Запомнить меня
Войти через:  Facebook Google Twitter Vk Yandex Mail.ru

Common Enemy - Late Night Skate - таба, видео

Печатать
Просмотров: 156
-------------------------------------------------------------------------------
                         Late Night Skate - Common Enemy
-------------------------------------------------------------------------------
Tabbed by: Omar Garcia
Email: ravage.cramoisi@gmail.com

Tuning: Standar

pm = Palm Mute

Listen to the song to get the rhythm


Intro
e|------------------------------------------------------------------------|
B|------------------------------------------------------------------------|
G|------------------------------------------------------------------------|
D|-22-22-22-22--------999-11s12-11s12-999-11s12-11s12-999-11s12-11s12-5-7-|
A|-22-22-22-22--------777--9s10--9s10-777--9s10--9s10-777--9s10--9s10-3-5-|
E|-00-00-00-00--1s12------------------------------------------------------|

Verse
e|-----------------------------------------------------|
B|-----------------------------------------------------|
G|-----------------------------------------------------|
D|-999-11s12-11s12-999-11s12-11s12-999-11s12-11s12-5-7-|
A|-777--9s10--9s10-777--9s10--9s10-777--9s10--9s10-3-5-|
E|-----------------------------------------------------|

Home from work I'm late again
my head's a f*cking mess,
sometimes I find it hard to cope
I gotta skate and thats no joke 

Chorus
e|-----------------|
B|-----------------|
G|-------------999-|
D|-999-999-999-999-|
A|-999-999-999-777-|
E|-777-777-777-----|
pm     ...     ...

Late night skate, thrash it up!
Late night skate, drink ‘em down! 
Late night skate, thrash it up!
Late night skate, drink ‘em down! 

Post-Chorus
e|---------------------|
B|---------------------|
G|---------------------|
D|-999-11s12-11s12-5-7-|
A|-777--9s10--9s10-3-5-|
E|---------------------|

Verse
e|-----------------------------------------------------|
B|-----------------------------------------------------|
G|-----------------------------------------------------|
D|-999-11s12-11s12-999-11s12-11s12-999-11s12-11s12-5-7-| x2
A|-777--9s10--9s10-777--9s10--9s10-777--9s10--9s10-3-5-|
E|-----------------------------------------------------|

Grab a beer and grab your board,
I'm home from work back out the door,
I got my board, my band, my friends,
thats where its at were true till death! 

Chorus
e|-----------------|
B|-----------------|
G|-------------999-|
D|-999-999-999-999-|
A|-999-999-999-777-|
E|-777-777-777-----|
pm     ...     ...

Late night skate, thrash it up!
Late night skate, drink ‘em down! 
Late night skate, thrash it up!
Late night skate, drink ‘em down! 

Bridge
        x8
e|----|-----|--------|--------|----------------------------|
B|----|-----|--------|--------|----------------------------|
G|----|-----|--------|-999999-|----------------------------|
D|-22-|-222-|-222222-|-999999-|-7-9--7-9--7-9--7-9---9999~-|
A|-22-|-222-|-222222-|-777777-|----------------------------|
E|-00-|-000-|-000000-|--------|----------------------------|
pm ..   ...   ......   ......
 
Outro
          x2
e|---------------|---|-------|
B|---------------|---|-------|
G|---------------|---|-99999-|
D|-9--9--9--5--7-|-9-|-99999-|
A|-7--7--7--3--5-|-7-|-77777-|
E|---------------|---|-------|

Late! Night! Skate! Thrash it up!
Late! Night! Skate! Drink em down!
===============================================================================
Добавлено: 04.07.2012
Другие материалы по этой песне:
  • Аккорды и текст

Страница создана 04.07.2012
http://primanota.ru/common-enemy/late-night-skate-chords.htm
Привет, Гость.
Предлагаем пройти революционный курс по гитаре.
Подарок от PrimaNota.Ru, забирай!