PrimaNota.ru - самый крупный в мире бесплатный архив песенных текстов, аккордов, табулатур и нот


Common Enemy - Cant Relate - таба, видео

Регистрация Запомнить меня
Войти через:  Facebook Google Twitter Vk Yandex Mail.ru

Common Enemy - Cant Relate - таба, видео

Печатать
Просмотров: 121
-------------------------------------------------------------------------------
                             Can't Relate - Common Enemy
-------------------------------------------------------------------------------
Tabbed by: Omar Garcia
Email: ravage.cramoisi@gmail.com

Tuning: Standar

* = Ring

Listen to the song to get the rhythm


Intro
            x4                x2
e|--------------------------|-----|
B|--------------------------|-----|
G|--------------------------|-----|
D|-------------77777--------|-----|
A|-9--7--9--7--55555--77777-|--9--|
E|-7--5--7--5---------55555-|--7--|

Verse
       x2            x2
e|-------------|-------------|
B|-------------|-------------|
G|-------------|-------------|
D|---------7---|--9-7-9--12*-| x2
A|-9-7-9-7-5-7-|--7-5-7--10*-|
E|-7-5-7-5---5-|-------------|

Refuse to believe that this is it,
is this the reason why I exist?
stuck on repeat, wanna fall asleep
wheres my house my wife and kids?
I'm not greedy I just wanna live
I'm not sorry but I cant relate


Bridge
          x3
e|---|----------|-------|
B|---|----------|-------|
G|---|----------|-------|
D|---|----------|-------|
A|-9-|-99-99-9*-|-99-99-|
E|-7-|-77-77-7*-|-77-77-|

Bills to feed, mouths to pay
Jewel was right but I have to say

Verse
       x2            x2             x2
e|-------------|-------------|-------------|---|
B|-------------|-------------|-------------|---|
G|-------------|-------------|-------------|---|
D|---------7---|--9-7-9--12*-|---------7---|-9-|
A|-9-7-9-7-5-7-|--7-5-7--10*-|-9-7-9-7-5-7-|-7-|
E|-7-5-7-5---5-|-------------|-7-5-7-5---5-|---|

Don't have the answers dont get me wrong
but you know it kills me
to see it kill us all
stuck in traffic, feel so inadequate now

End
e|---|
B|---|
G|---|
D|---|
A|-9-|
E|-7-|

Im sorry but I cant fucking relate!
===============================================================================
Добавлено: 02.04.2012
Другие материалы по этой песне:
  • Аккорды и текст

Страница создана 02.04.2012
http://primanota.ru/common-enemy/cant-relate-chords.htm
Привет, Гость.
Предлагаем пройти революционный курс по гитаре.
Подарок от PrimaNota.Ru, забирай!