PrimaNota.ru - самый крупный в мире бесплатный архив песенных текстов, аккордов, табулатур и нот


Common Enemy - 8 Bit - таба, видео

Регистрация Запомнить меня
Войти через:  Facebook Google Twitter Vk Yandex Mail.ru

Common Enemy - 8 Bit - таба, видео

Печатать
Просмотров: 212
-------------------------------------------------------------------------------
                              8 Bit - Common Enemy
-------------------------------------------------------------------------------
Tabbed by: Omar Garcia
Email: ravage.cramoisi@gmail.com

Tuning: Standar

pm = Palm Mute

Listen to the song to get the rhythm


Intro
e|---------------------------------|
B|---------------------------------|
G|---------------------------------|
D|-11-9-11-12-12121212-11-9-11-12*-|
A|--9-7--9-10-10101010--9-7--9-10*-|
E|---------------------------------|
NOTE: The notes are (A|10 D|12)
not (A|1 D|1  A|0 D|2)

Verse
e|-----------------------|
B|-----------------------|
G|-----------------------|
D|-999-101010-999-121212-| x2
A|-777--8-8-8-777-101010-|
E|-----------------------|

Tetris, Duck Hunt, Excite Bike, 
I remember those long nights

Chorus
e|------------------------|
B|------------------------|
G|------------------------|
D|-------111111--555--999-| x2
A|-9999---9-9-9--333--777-|
E|-777--------------------|

8 bit armageddon!
8 bit armageddon!

Verse
e|-----------------------|
B|-----------------------|
G|-----------------------|
D|-999-101010-999-121212-| x2
A|-777--8-8-8-777-101010-|
E|-----------------------|

Outta my way, I'm up next 
I gotta save the f*cking princess

Chorus
e|------------------------|
B|------------------------|
G|------------------------|
D|-------111111--555--999-| x2
A|-9999---9-9-9--333--777-|
E|-777--------------------|

8 bit armageddon!
8 bit armageddon!

Bridge
e|---------------|
B|---------------|
G|---------------|
D|-9-10--7-8--5*-|
A|-7-8---5-6--3*-|
E|---------------|

N! E! S!

Verse/Outro
            x2
e|-----------------------|-----|---|
B|-----------------------|-----|---|
G|-----------------------|-----|---|
D|-999-101010-999-121212-|-12*-|-9-|
A|-777--8-8-8-777-101010-|-10*-|-7-|
E|-----------------------|-----|---|

Gritting teeth and my hands hurt, my eyes are strained
one more level wont hurt!
===============================================================================
Добавлено: 08.06.2012
Другие материалы по этой песне:
  • Аккорды и текст

Страница создана 08.06.2012
http://primanota.ru/common-enemy/8-bit-chords.htm
Привет, Гость.
Предлагаем пройти революционный курс по гитаре.
Подарок от PrimaNota.Ru, забирай!