PrimaNota.ru - самый крупный в мире бесплатный архив песенных текстов, аккордов, табулатур и нот


Common Children - Wishing Well - текст песни, таба, видео

Регистрация Запомнить меня
Войти через:  Facebook Google Twitter Vk Yandex Mail.ru

Common Children - Wishing Well - текст песни, таба, видео

Печатать
Просмотров: 109
		   Wishing Well
Common Children
(c) 1996 Tattoo Records Inc.
tabbed by Israel Slick

Intro and Verse:  A-B-D-E

    F#m             D          F#m              D
But please don't listen to the lies inside this place
         F#m               D             F#m               D
When the monster rears its head out just turn and see your face
A        B      D              E     A
When the sky is torn, feelings are reborn
A            B       D                 E          A
But like the passing rain, this moment will fade away
A      B     D  E       A     B        D     E
And so I try to find my water all by myself
        F#m
It's so dry
  e     a       D   
I won't stop to cry

solo:
|------------------------------------------------------------------------------|
|------15--12----10------------------12--10-----------------14-14-14-14--------|
|-14b---------11----9-9-9-9-11--14b---------11-11-9-9--------------------16----|
|-----------------------------------------------------9---------------------12-|
|-------------------------------------------------------12---------------------|
|------------------------------------------------------------------------------|
    A             B           D         E
I'm drinking from the wishing well
    A                 B      D         E
I'm fleeing from this frozen cell
         A         B           D          E
 I think about the people I've hurt in my life    (2x)
   A               B           D       E
Forgive me for the people I've hurt in my life  
   A               B      D       E
Forgive me for the people I hurt
    e      a
|---12-----12---|
|---12-----14---|
|---13-----14---|
|---14-----14---|
|---14-----12---|
|---12-----12---|     
Добавлено: 07.07.2013
Вам также может быть интересно:
Другие материалы по этой песне:
  • Аккорды и текст

Страница создана 05.04.2012
http://primanota.ru/common-children/wishing-well-chords.htm
Привет, Гость.
Предлагаем пройти революционный курс по гитаре.
Подарок от PrimaNota.Ru, забирай!