PrimaNota.ru - самый крупный в мире бесплатный архив песенных текстов, аккордов, табулатур и нот


Common Children - Treasure - текст песни, таба, видео

Регистрация Запомнить меня
Войти через:  Facebook Google Twitter Vk Yandex Mail.ru

Common Children - Treasure - текст песни, таба, видео

Печатать
Просмотров: 144
		   Treasure
by: Common Children
CD: Skywire
copyright: © 1996 Tattoo Records
transcribed by:  Eric & Dave Pierson  (biff.the.riff@juno.com)

Strumming pattern:     	v : downstroke
^ : upstroke
(note: the names of the chords written above the tab may not be correct, but are mainly there as a reference above the lyrics)

(fig.  1)
E5             E2                  A2            A6(no 3rd)
 v   v   v   v ^   ^   ^ v   v ^   v   v   v   v ^   ^   ^ v   v ^
-0---0---0---0-0---0---0-0---0-0---0---0---0---0-0---0---0-0---0-0-
-0---0---0---0-7---7---0-0---0-0---0---0---0---0-7---7---0-0---0-0-
-9---9---9---9-9---9---9-9---9-9---9---9---9---9-9---9---9-9---9-9-
-9---9---9---9-9---9---9-9---9-9---7---7---7---7-7---7---7-7---7-7-
-7---7---7---7-7---7---7-7---7-7---0---0---0---0-0---0---0-0---0-0-
-0---0---0---0-0---0---0-0---0-0---0---0---0---0-0---0---0-0---0-0-

(fig.  2)
E(no 5th)                          Aadd2                             E7(no 3rd)                        Aadd2
 v   v   v   v ^   ^   ^ v   v ^   v   v   v   v ^   ^   ^ v   v ^   v   v   v   v ^   ^   ^ v   v ^   v   v   v   v ^   ^   ^ v   v ^
-0---0---0---0-0---0---0-0---0-0---0---0---0---0-0---0---0-0---0-0---0---0---0---0-0---0---0-0---0-0---0---0---0---0-0---0---0-0---0-0-
-0---0---0---0-0---0---0-0---0-0---0---0---0---0-0---0---0-0---0-0---0---0---0---0-0---0---0-0---0-0---0---0---0---0-0---0---0-0---0-0-
-1---1---1---1-1---1---1-1---1-1---6---6---6---6-6---6---6-6---6-6---8---8---8---8-8---8---8-8---8-8---6---6---6---6-6---6---6-6---6-6-
-2---2---2---2-2---2---2-2---2-2---7---7---7---7-7---7---7-7---7-7---9---9---9---9-9---9---9-9---9-9---7---7---7---7-7---7---7-7---7-7-
---------------------------------------------------------------------------------------------------------------------------------------
---------------------------------------------------------------------------------------------------------------------------------------

(fig.  3)
B5/Db5                        B5             E5
 v      v  ^  v     v  ^  v   ^ v   v        v   v ^ v   v ^ v ^ v   v
-----------------------------------------------------------------------
-----------------------------------------------------------------------
-----------------------------------------------------------------------
---------------------------------------------9---9-9-9---9-9-9-9-9---9-
-9/11---11-11-11---11-11-11---9-9---0--------7---7-7-7---7-7-7-7-7---7-
-7/-9----9--9--9----9--9--9---7-7---7--------0---0-0-0---0-0-0-0-0---0-

(fig.  4)
( I'm not sure about the strumming in this part)
E5                               F#5                             A5                              B5
v    v   v   v   v   v   v   v   v   v   v   v   v   v   v   v   v   v   v   v   v   v   v   v   v   v   v   v   v   v  v    v
-------------------------------------------------------------------------------------------------------------------------------
-------------------------------------------------------------------------------------------------------------------------------
-------------------------------------------------------------------------------------------------------------------------------
-------------------------------------------------------------------------------------------------------------------------------
-2---2---2---2---2---2---2---2---4---4---4---4---4---4---4---4---7---7---7---7---7---7---7---7---9---9---9---9---9---9---9---9-
-0---0---0---0---0---0---0---0---2---2---2---2---2---2---2---2---5---5---5---5---5---5---5---5---7---7---7---7---7---7---7---7-

(fig.  5)
( I'm not sure about the strumming in this part)
E5               A5      B5
 v   v   v   v   v   v   v   v
-------------------------------
-------------------------------
-------------------------------
-------------------------------
-2---2---2---2---7---7---9---9-
-0---0---0---0---5---5---7---7-

==(fig. 1)==

		 E5	        A2		E5	          A2
--verse 1--	Silence is falling,		I'm calling like a child,		
		Shaking and aching,		I'm faking it all the while 

--(verse 2)--	Shiver and quiver,		We whisper inside this shell,
Sleeping and dreaming,	We're screaming but I won't tell
		

==(fig. 2)==

E(no 5th)		  Aadd2			      	     E7(No 3rd)	         Aadd2
(v1)	And when I wake up in the night,		G I can try to be a little more than I am,
	And then I see you in the morning,		I can only cry, I can't ask myself why 

(v2)	And when I'm running from myself,		and I can't hide, I won't ask myself why
	And when I find you in this fever,		I can only cry, You make me so shy


==(fig. 3)==

B5-Db5---B5-	  E5-E5-E5-E5		      B5-Db5---B5-  E5-E5-E5-E5
   This is when I love to cry
		 B5-Db5---B5-  E5-E5-E5-E5		     B5-Db5---B5-  E5-E5-E5-E5 
Don't even ask me why 			  This is when I love to cry


==(fig. 4)==

-(1st and 3rd verses)-	
E5	      A5		          B5			 A5
    Sister, sister, sister, sister Mary,  Oh sister Mary,
E5	         A5                      B5              A5
    Sister, sister, sister, sister Mary


==(fig. 5)==

-(2nd verse)-
E	A B    E	     A B   E			A  B    	   E     A B	E	         A  B
I can see,        And I can feel,     Your love so real - My love,     I can see,     And I can feel love 

   E		        A  B         E			A  B		 E		         A   B
Greet me in the morning,   	You know that I'll be there,   		You know that I'll be there   	         

E	     A  B 	E			A  B		E		  A    B
  In the morning,   	You know that I'll be there,   		Greet me in the morning

(chorus)
     
Добавлено: 21.08.2013
Другие материалы по этой песне:
  • Аккорды и текст

Страница создана 01.05.2012
http://primanota.ru/common-children/treasure-chords.htm
Привет, Гость.
Предлагаем пройти революционный курс по гитаре.
Подарок от PrimaNota.Ru, забирай!