PrimaNota.ru - самый крупный в мире бесплатный архив песенных текстов, аккордов, табулатур и нот


Common Children - Storm Boy - текст песни, таба, видео

Регистрация Запомнить меня
Войти через:  Facebook Google Twitter Vk Yandex Mail.ru

Common Children - Storm Boy - текст песни, таба, видео

Печатать
Просмотров: 279
Уроки эстрадного вокала в Санкт-Петербурге
		   Band:  Common Children
Song:  'Storm Boy'
Album:  Delicate Fade
Copyright:  New Tattoo Music/BMI 1997
Tabbed by:  Wes Marlan
Email:  guitarwez@hotmail.com

Dropped D tuning (tune low E to D)

Intro/Verse:

e----------------------------------
B-----2----------------------------
G----------------------------------    X 6   
D---4---4-----2-------7-------5----
A-2---------0---0---5---5---5---5--
D---------0-------5-------5--------

e---------2---------------5--------
B-----------3-3--------------------
G-----4---------4-----7-----7-7----    X 2
D---2---2-----------7---7-------7--
A-2---------------5----------------
D----------------------------------

Chorus:

e----------------------------------
B----------------------------------
G----------------------------------    X 4
D-----7-------7-------7-------7----
A---0---0---7---7---5---5---5---5--
D-0-------7-------5-------5--------

Repeat Intro/Verse

Repeat Chorus

Solo:

e---------------------------------------------
B--------------------5-----7-5----------------
G-6-----7-6------------------------4----------
D------------7/9-----------------------4/6--7-
A----------------9----------------------------
D---------------------------------------------

Repeat Chorus


     
Добавлено: 01.08.2013
Другие материалы по этой песне:
  • Аккорды и текст

Страница создана 12.03.2012
http://primanota.ru/common-children/storm-boy-chords.htm
Привет, Гость.
Предлагаем пройти революционный курс по гитаре.
Подарок от PrimaNota.Ru, забирай!