PrimaNota.ru - самый крупный в мире бесплатный архив песенных текстов, аккордов, табулатур и нот


Common Children - So Dream - текст песни, таба, видео

Регистрация Запомнить меня
Войти через:  Facebook Google Twitter Vk Yandex Mail.ru

Common Children - So Dream - текст песни, таба, видео

Печатать
Просмотров: 135
		   Band:  Common Children
Song:  'G Dream'
Album:  Delicate Fade
Copyright:  1997 New Tattoo Music/BMI
Tabbed by:  Wes Marlan
Email:  guitarwez@hotmail.com
_____________________________________________________________________

Tuning:  Dropped D  (DADGBE)

Chords:  Csus2-(X35533)        G5-(X101212XX)
         Dsus2-(X57755)        a5-(X121414XX)
           A#5-(X133XX)        D5-(X577XX)
           F5-(333XXX)         c5-(X151717XX)
           f5-(X81010XX)      
_____________________________________________________________________

Intro:    (~) = give it a twangy vibrato 

e---------------------------------------------------------------
B---------------------------------------------------------------
G---------------------------------------------------------------
D--3--3--3-3-3-5--7-7-7-7-5--5/8--10~-8-10~-8--10~-8-10-10-8\3--  
A--3--3--3-3-3-5--7-7-7-7-5--5/8------8-----8------8-10-10-8\3--  (X2)
D--3--3--3-3-3-5--5-5-5-5-5--5/8------8-----8------8--8--8-8\3--
_____________________________________________________________________

Verse:

Csus2     Dsus2                      Csus2      Dsus2
Wrap your shame in a shroud          Raise your grief to the clouds

Csus2       Dsus2             A#5  F5
Angels sing inside our smiles

Csus2    Dsus2                      Csus2     Dsus2
Let the wind wash the stains out     Let the sky drip in your eyes

A#5           F5             A#5                   F5
Innocent and kind         A place where fools can hide

(note for above: a distorted guitar comes in whenever A#5 or F5 is played)
_____________________________________________________________________

Chorus (bear with me here):

*There are 2 guitars (maybe even 3 but I just tabbed out 2) in the 
*chorus--one clean and one distorted...

        e-----------8-8--------------8-8-----
        B------------------------------------
(clean) G-----10-10-----10-----10-10-----10--
        D------------------------------------  
        A-8-8--------------8-8---------------
        D------------------------------------

(distorted)           f5            a5   
            G       Dream



(clean)      G5                    f5  a5  G5  f5
(distorted)  C5                   A#5
            Love falls down from heaven   When we


        e-----------8-8--------------8-8-----
        B------------------------------------
(clean) G-----10-10-----10-----10-10-----10--
        D------------------------------------  
        A-8-8--------------8-8---------------
        D------------------------------------

(distorted)   f5                 D5
      dream  (Close    our     eyes)


(clean)      G5                    f5 a5 G5 f5
(distorted)  C5                   A#5
            Love falls down from heaven
___________________________________________________________________

Post-Chorus:

The two guitars play these chords simultaneously:

(clean)--Csus2  Dsus2  (X2)
(distorted)--C5  D5    (X2)
___________________________________________________________________

2nd Verse:

 Csus2     Dsus2
   If we dream through this night

 Csus2     Dsus2
   We can dance in the twilight

 Csus2     Dsus2                       A#5  F5
   Shut our eyes and then sleep tight

 Csus2     Dsus2
   By the light of sweet grace

 Csus2    Dsus2
   In the fire where our hearts fade

   A#5              F5              A#5              F5
   Step inside and find         A shameless state of mind
___________________________________________________________________

2nd chorus:
        e-----------8-8--------------8-8-----
        B------------------------------------
(clean) G-----10-10-----10-----10-10-----10--
        D------------------------------------  
        A-8-8--------------8-8---------------
        D------------------------------------

(distorted)           f5            a5   
            G       Dream
(clean)      G5                    f5  a5  G5  f5
(distorted)  C5                   A#5
            Love falls down from heaven   When we


        e-----------8-8--------------8-8-----
        B------------------------------------
(clean) G-----10-10-----10-----10-10-----10--
        D------------------------------------  
        A-8-8--------------8-8---------------
        D------------------------------------

(distorted)   f5                 D5
      dream  (Close    our     eyes)


(clean)       G5                   f5  a5  G5  f5
(distorted)   C5                   A#5
             Love falls down from heaven  (When we cry)

(clean)       G5                   c5  a5  G5  f5
(distorted)   C5                   A#5
             Love falls down from heaven when we dream...
_______________________________________________________________________


Play this intro part (X3) then on the 4th time play the last half of the bar:

e---------------------------------------------------------------
B---------------------------------------------------------------
G---------------------------------------------------------------
D--3--3--3-3-3-5--7-7-7-7-5--5/8--10~-8-10~-8--10~-8-10-10-8\3--  
A--3--3--3-3-3-5--7-7-7-7-5--5/8------8-----8------8-10-10-8\3--  
D--3--3--3-3-3-5--5-5-5-5-5--5/8------8-----8------8--8--8-8\3--
_______________________________________________________________________

Ending Chorus:  practically identical to the 2nd chorus

--It's a pretty easy song to play.  As always, corrections welcomed.
--Enjoy the tab...  
     
Добавлено: 02.09.2013
Другие материалы по этой песне:
  • Аккорды и текст

Страница создана 30.05.2012
http://primanota.ru/common-children/so-dream-chords.htm
Привет, Гость.
Предлагаем пройти революционный курс по гитаре.
Подарок от PrimaNota.Ru, забирай!