PrimaNota.ru - самый крупный в мире бесплатный архив песенных текстов, аккордов, табулатур и нот


Common Children - Drought - текст песни, таба, видео

Регистрация Запомнить меня
Войти через:  Facebook Google Twitter Vk Yandex Mail.ru

Common Children - Drought - текст песни, таба, видео

Печатать
Просмотров: 155
Уроки эстрадного вокала в Санкт-Петербурге
		   *Drought*
 Common Children
 Skywire (1996)
Copyright New Tattoo Music
  

Verse1>———————————————————————————————————————————————————————¬
G|-9--------------------------9----------------------------|
D|-9--------------------------9----------------------------|
A|-7--------------------------7----------------------------|
E|---------------------------------------------------------|
        Nausea                      comes creeping like a dog.
        Falling down now            and sleeping like a log.

G|-9-9--7-7--9-9-7-9-7-9--7-------|-9-9--7-7--9-9-7-9-7-9--7--------|
D|-9-9--7-7--9-9-7-9-7-9--7-------|-9-9--7-7--9-9-7-9-7-9--7--------|
A|-7-7--5-5--7-7-5-7-5-7--5-------|-7-7--5-5--7-7-5-7-5-7--5--------|
E|--------------------------------|---------------------------------|
            The leaders are speaking         in parables and lies.
            Buy another heaven               eat the pie in the sky.

Chorus>—————————————————————————————————————————————————————————————————————¬
G|---------------------------------|---------------------------------|
D|-5-5-5-5-5-5-5-5-9-9-9-9-7-7-7-7-|-5-5-5-5-5-5-5-5-9-9-9-9-7-7-7-7-|
A|-5-5-5-5-5-5-5-5-9-9-9-9-7-7-7-7-|-5-5-5-5-5-5-5-5-9-9-9-9-7-7-7-7-|
E|-3-3-3-3-3-3-3-3-7-7-7-7-5-5-5-5-|-3-3-3-3-3-3-3-3-7-7-7-7-5-5-5-5-|
      You say we're sorry how long?     Our words are dried up what's wrong?
      Burn all our eyes shut - maybe    we all are too numb to see.

Bridge>—————————————————————————————¬
G|---------7-7-7-7-----------------|
D|-9-9-9-9-7-7-7-7-5-5-5-5-7-7-7-7-|
A|-9-9-9-9-5-5-5-5-5-5-5-5-7-7-7-7-|
E|-7-7-7-7---------3-3-3-3-5-5-5-5-|
   Look at all the frozen people

Solo>———————————————————————————————————————————————————¬
e|-----------9^-7--------------------------------------|
B|-------7--------7---7--------------------------------|
G|-4h6-7---9--------9---7-6-4---------------------9--\0|
D|-------------------------------5b----6-----5---------|

Outtro>———————————————————play—twice——¬
G|-------------7---------------------|
D|-7/9-7/9-7/9-7----7/9-7/9-7/9-5----|
A|-7/9-7/9-7/9-5----7/9-7/9-7/9-5----|
E|-5/7-5/7-5/7------5/7-5/7-5/7-3----|


Key>——————————————————————————————————————¬
/ slide up   | b = bend up                |
\ slide down | ^ = bend up and back down  |
——————————————————————————————————————————|     
Добавлено: 06.06.2013
Другие материалы по этой песне:
  • Аккорды и текст

Страница создана 08.05.2012
http://primanota.ru/common-children/drought-chords.htm
Привет, Гость.
Предлагаем пройти революционный курс по гитаре.
Подарок от PrimaNota.Ru, забирай!