PrimaNota.ru - самый крупный в мире бесплатный архив песенных текстов, аккордов, табулатур и нот


Comets On Fire - Sour Smoke - таба, видео

Регистрация Запомнить меня
Войти через:  Facebook Google Twitter Vk Yandex Mail.ru

Comets On Fire - Sour Smoke - таба, видео

Печатать
Просмотров: 80
------------------------------------------------------------------------------
			     
                            Sour Smoke – Comets On fire

------------------------------------------------------------------------------
Tabbed by: Eduardo140590								
Email: eddy_dani14@hotmail.com

Artist: comets on fire

Song: sour smoke

Album: avatar

Tuning: Standard

   0:00
e|------------------------|
B|-3--2--1----1-----------|
G|-2--2--2----2-----3-----|      X2
D|-0--2--2----2--2--3-----|
A|---------------2--1-----|
E|---------------0--------|

   0:41
e|------------------------|
B|-3-3--3-3---------------|
G|-2-2--2-2---------------|      X8
D|-0-0--0-0---------------|
A|------------------------|
E|------------------------|

   0:41 Guitar II
e|---------------------------|
B|---------------------------|
G|---------------------------|      X8
D|-7-5-7-5-7-5---7-5-7-5-7-5-|
A|---------------------------|
E|---------------------------|

   0:59
e|----------------------------------|
B|----------------------------------|
G|----------------------------------|   X4
D|-12--10--7--3--5--7---------------|
A|---------------------5--3—-5------|
E|----------------------------------|

   1:34
e|-10-8-10-8-----10-8-10-8-----10-8-10-8-----------------|
B|-----------10------------10------------10-8-10---------|
G|-------------------------------------------------------| X2
D|-------------------------------------------------------|
A|-------------------------------------------------------|
E|-------------------------------------------------------|

   1:43
e|-17----15----13----12----10—8h10h8h10------------------|
B|----18----17----15----13--------------10---------------|
G|-------------------------------------------------------| X2
D|-------------------------------------------------------|
A|-------------------------------------------------------|
E|-------------------------------------------------------|

   1:51
e|-10-8-10-8-----10-8-10-8-----10-8-10-8-----------------|
B|-----------10------------10------------10-8-10---------|
G|-------------------------------------------------------| X1
D|-------------------------------------------------------|
A|-------------------------------------------------------|
E|-------------------------------------------------------|




   1:55
e|----------------------------------------8—-12---------------|
B|-10-8-10-8---10-8-10-8----10-8-10-8-------------------------|
G|----------10-----------10-----------10----------------------| X1
D|------------------------------------------------------------|
A|------------------------------------------------------------|
E|------------------------------------------------------------|

   2:00
e|----------------------------------|
B|----------------------------------|
G|----------------------------------|   X4
D|-12--10--7--3--5--7---------------|
A|---------------------5--3—-5------|
E|----------------------------------|

   2:35
e|------------------------|
B|-3-3--3-3---------------|
G|-2-2--2-2---------------|      X8
D|-0-0--0-0---------------|
A|------------------------|
E|------------------------| 
   2:35
e|---------------------------|
B|---------------------------|
G|---------------------------|      X8
D|-7-5-7-5-7-5---7-5-7-5-7-5-|
A|---------------------------|
E|---------------------------|

   2:52
e|-----------------------|
B|-3--2--1----1----------|
G|-2--2--2----2-----3----|      X2
D|-0--2--2----2--2--3----|
A|---------------2--1----|
E|---------------0-------|

   3:24
e|------------------------|
B|-3-3--3-3---------------|
G|-2-2--2-2---------------|      X8
D|-0-0--0-0---------------|
A|------------------------|
E|------------------------|

   3:24
e|---------------------------|
B|---------------------------|
G|---------------------------|      X8
D|-7-5-7-5-7-5---7-5-7-5-7-5-|
A|---------------------------|
E|---------------------------|

   3:41
e|----------------------------------|
B|----------------------------------|
G|----------------------------------|   X2
D|-12--10--7--3--5--7---------------|
A|---------------------5--3—-5------|
E|----------------------------------|


   3:58
e|-10-8-10-8-----10-8-10-8-----10-8-10-8-----------------|
B|-----------10------------10------------10-8-10---------|
G|-------------------------------------------------------| X2
D|-------------------------------------------------------|
A|-------------------------------------------------------|
E|-------------------------------------------------------|

   4:07
e|-17----15----13----12----10—8h10h8h10------------------|
B|----18----17----15----13--------------10---------------|
G|-------------------------------------------------------| X2
D|-------------------------------------------------------|
A|-------------------------------------------------------|
E|-------------------------------------------------------|

   4:15
e|-10-8-10-8-----10-8-10-8-----10-8-10-8-----------------|
B|-----------10------------10------------10-8-10---------|
G|-------------------------------------------------------| X1
D|-------------------------------------------------------|
A|-------------------------------------------------------|
E|-------------------------------------------------------|
 
   4:20
e|----------------------------------------8—-12---------------|
B|-10-8-10-8---10-8-10-8----10-8-10-8-------------------------|
G|----------10-----------10-----------10----------------------| X1
D|------------------------------------------------------------|
A|------------------------------------------------------------|
E|------------------------------------------------------------|

   4:24
e|----------------------------------|
B|----------------------------------|
G|----------------------------------|   X4
D|-12--10--7--3--5--7---------------|
A|---------------------5--3—-5------|
E|----------------------------------|

   4:58
e|------------------------|
B|-3-3--3-3---------------|
G|-2-2--2-2---------------|      X8
D|-0-0--0-0---------------|
A|------------------------|
E|------------------------|

   4:58
e|---------------------------|
B|---------------------------|
G|---------------------------|      X8
D|-7-5-7-5-7-5---7-5-7-5-7-5-|
A|---------------------------|
E|---------------------------|

   5:15
e|------------------------|
B|-3--2--1----1-----------|
G|-2--2--2----2-----3-----|      X1
D|-0--2--2----2--2--3-----|
A|---------------2--1-----|
E|---------------0--------|





   5:22
e|---------------------------|
B|-3--2--1----1--------------|
G|-2--2--2----2-----3--5--7--|      X1
D|-0--2--2----2--2--3--5--7--|
A|---------------2--1--3--5--|
E|---------------0-----------|

   5:33
e|------------------------------|
B|------------------------------|
G|---------------------------7--|      X4
D|-9-9--9-9--9-9--9-9--9--9--7--|
A|-9-9--9-9--9-9--9-9--9--9--5--|
E|-7-7--7-7--7-7--7-7--7--7-----|

   5:55
e|-------------------------|
B|-------------------------|
G|-------------------------|      X4
D|-------------------------|
A|-5-3-2-3-2-1--5-3-2-3-2-1|
E|-------------------------|

   6:25
e|-------------------------|
B|-------------------------|
G|-------------------------|
D|-------------------------|
A|-5-7-8-7--5-7-8-7--------|
E|-------------------------|

   6:32
e|-------------------------|
B|-------------------------|
G|-------------------------|      X2
D|-------------------------|
A|-5-3-2-3-2-1--5-3-2-3-2-1|
E|-------------------------|

   6:47
e|------------------------|
B|-3-3--3-3---------------|
G|-2-2--2-2---------------|      X6
D|-0-0--0-0---------------|
A|------------------------|
E|------------------------|

   6:52
e|---------------------------|
B|---------------------------|
G|---------------------------|      X4
D|-7-5-7-5-7-5---7-5-7-5-7-5-|
A|---------------------------|
E|---------------------------|

   7:01
e|----------------------------------|
B|----------------------------------|
G|----------------------------------|   X2
D|-12--10--7--3--5--7---------------|
A|---------------------5--3—-5------|
E|----------------------------------|





   7:19
e|-10-8-10-8-----10-8-10-8-----10-8-10-8-----------------|
B|-----------10------------10------------10-8-10---------|
G|-------------------------------------------------------| X2
D|-------------------------------------------------------|
A|-------------------------------------------------------|
E|-------------------------------------------------------|

   7:27
e|-17----15----13----12----10—8h10h8h10------------------|
B|----18----17----15----13--------------10---------------|
G|-------------------------------------------------------| X2
D|-------------------------------------------------------|
A|-------------------------------------------------------|
E|-------------------------------------------------------|

   7:36
e|-10-8-10-8-----10-8-10-8-----10-8-10-8-----------------|
B|-----------10------------10------------10-8-10---------|
G|-------------------------------------------------------| X1
D|-------------------------------------------------------|
A|-------------------------------------------------------|
E|-------------------------------------------------------|

   7:40
e|----------------------------------------8—-12---------------|
B|-10-8-10-8---10-8-10-8----10-8-10-8-------------------------|
G|----------10-----------10-----------10----------------------| X1
D|------------------------------------------------------------|
A|------------------------------------------------------------|
E|------------------------------------------------------------|

   7:44
e|----------------------------------|
B|----------------------------------|
G|----------------------------------|   X4
D|-12--10--7--3--5--7---------------|
A|---------------------5--3—-5------|
E|----------------------------------|


   8:18
e|------------------------|
B|-3-3--3-3---------------|
G|-2-2--2-2---------------|      X8
D|-0-0--0-0---------------|
A|------------------------|
E|------------------------|

   8:18
e|---------------------------|
B|---------------------------|
G|---------------------------|      X8
D|-7-5-7-5-7-5---7-5-7-5-7-5-|
A|---------------------------|
E|---------------------------|


   8:35
e|---------------------------|
B|-3--2--1-------------------|
G|-2--2--2-------------------|      X8
D|-0--2--2-------------------|
A|---------------------------|
E|---------------------------|


www.cometsonfire.com
Добавлено: 11.06.2012
Другие материалы по этой песне:
  • Аккорды и текст

Страница создана 11.06.2012
http://primanota.ru/comets-on-fire/sour-smoke-chords.htm
Привет, Гость.
Предлагаем пройти революционный курс по гитаре.
Подарок от PrimaNota.Ru, забирай!