PrimaNota.ru - самый крупный в мире бесплатный архив песенных текстов, аккордов, табулатур и нот


Comet Kid - Skin - таба, видео

Регистрация Запомнить меня
Войти через:  Facebook Google Twitter Vk Yandex Mail.ru

Comet Kid - Skin - таба, видео

Печатать
Просмотров: 52
Beautiful, naked and exposing song. Perfect for a vaguely rasp voice and also very easy to play. Enjoy! :)

CAPO on 5th


INTRO:
|--------------------------------------------------------------------------------------|
|---0----1---------0------------------1----2------------------------------1------------|
|---0----0---------0----0----0--------0----0----------0----0----0---------0------0-----|
|---2----2---------5----0----4--------2----0----------0----0----2---------2------0-----|
|---2----3---------5----5----5--------3----2----------2----0----2---------3------2-----|
|-----------------------------------------------------3----2----0----------------3-----|

|-------------------------------------------------------------------------------------------------|
|-0------------------------1----------------------------------------------------------------------|
|-0------------------------0---------------------------0-------------0--------------------------0-|
|-2------------------------2---------------------------5-------------0--------------------------4-|
|-2------------------------3---------------------------5-------------5--------------------------5-|
|-0----------------------------------------------------0-------------0--------------------------0-|
     I am a man of vain,     feeling the same old pain. Never quite found what I'm looking for.

|------------------------------------------------------------------------------------------------|
|-0----------------------------------1-----------------------------------------------------------|
|-0----------------------------------0------------------------0-----------0-------------0--------|
|-2----------------------------------2------------------------5-----------0-------------4--------|
|-2----------------------------------3------------------------5-----------5-------------5--------|
|-0-----------------------------------------------------------0-----------0-------------0--------|
      I'm feeling the times of tide.  I never used to hide.     This ain't feeling right.

|---------------------------------------------------------------|
|--------------------1------------------------------------------|
|--------------------0----------------------------0-------------|
|--------------------2----------------------------0-------------|
|--------------------3----------------------------2-------------|
|-------------------------------------------------3-------------|
  I'm filling up my cup (aah). I'm filling up my cup (aah)

|-----------------------------------------------------------------------|
|------------------------------------------------------1----------------|
|------------------------------------------------------0----------------|
|--X-------0--X--------0-------X----2------------------2----------------|
|--X-------2--X--------2-------X----2------------------3----------------|
|--X-------3--X--------2-------X----0-----------------------------------|
 'Cause -    We're all looking for love. Only looking outside the skin.

|-------------------------------------------------------------------------------------|
|-------------------------------------------------------------------------------------|
|-------------------------------------------------------------------------------------|
|-------------0-----------0----------0--------------------0----------------2----------|
|-------------2-----------0----------2--------------------0----------------2----------|
|-------------3-----------2----------3--------------------2----------------0----------|
Only looking outside and in.                And we're all looking for the same.

|--------------------------------------------------------------------------------------------|
|------------1-------------------------------------------------------------------------1-----|
|------------0-------------------------------------------------0-----------------------0-----|
|------------2-------------------------------0-----------0-----2-----------------------2-----|
|------------3-------------------------------2-----------0-----2-----------------------3-----|
|--------------------------------------------3-----------2-----0-----------------------------|
Only looking outside the skin, only looking outside and in.        I got you feeling down

|-------------------------------------------------------------------------------------|
|-------------------------------------------------------------------------------------|
|----------------------------------0--------------------0-----------------------0-----|
|----------------------------------5--------------------0-----------------------4-----|
|----------------------------------5--------------------5-----------------------5-----|
|----------------------------------0--------------------0-----------------------0-----|
  And I'm loosing controll, and I don't wanna stay - I don't wanna stay with you

|-------------------------------------------------------------------------------------------------------|
|---------------------------------1---------------------------------------------------------------------|
|-0-------------------------------0-----------------------------------0-----0------------------------0--|
|-2-------------------------------2-----------------------------------5-----0------------------------4--|
|-2-------------------------------3-----------------------------------5-----5------------------------5--|
|-0-------------------------------------------------------------------0-----0------------------------0--|
     I got you all up in here and I, I'm feeling that all is done and I, I don't wanna lose control

|-------------------------------------------------------------------------------------------------------|
|------------------------1------------------------------------------------------------------------------|
|------------------------0----------------------0----------0-----------------0------------0-------------|
|------------------------2----------------------0----------0-----------------0------------2-------------|
|------------------------3----------------------2----------2-----------------0------------2-------------|
|----------------------------------------------------------3-----------------2------------0-------------|
      I'm filling up my cup. I'm filling up my cup, 'cause. 'Cause we're all looking for love, yeah!

|----------------------------------------------------------------------|
|-----------------1----------------------------------------------------|
|-----------------0----------------------------------------------------|
|-----------------2-------------------------------0-----------0--------|
|-----------------3-------------------------------2-----------0--------|
|-------------------------------------------------3-----------2--------|
     Only looking outside the skin. Only looking outside and in

|----------------------------------------------------|
|----------------------------------------------------|
|-0---------------0--------------------0-------------|
|-0---------------0--------------------2-------------|
|-2---------------0--------------------2-------------|
|-3---------------2--------------------0-------------|
    And we're all looking for the same 

|--------------------------------------------------------------------------------------|
|------------------1-------------------------------------------------------------------|
|------------------0-------------------------------------------------------------------|
|------------------2-----------------------------0--------------0----           -------|
|------------------3-----------------------------2--------------0---- LET RING  -------|
|------------------------------------------------3--------------2----           -------|
     Only looking outside the skin. Only looking outside and in
Добавлено: 08.06.2016
Вам также может быть интересно:
Другие материалы по этой песне:
  • Аккорды и текст

Страница создана 08.06.2016
http://primanota.ru/comet-kid/skin-chords.htm
Привет, Гость.
Предлагаем пройти революционный курс по гитаре.
Подарок от PrimaNota.Ru, забирай!