PrimaNota.ru - самый крупный в мире бесплатный архив песенных текстов, аккордов, табулатур и нот


Comet Kid - Psychopath - аккорды и текст, видео

Регистрация Запомнить меня
Войти через:  Facebook Google Twitter Vk Yandex Mail.ru

Comet Kid - Psychopath - аккорды и текст, видео

Печатать
Просмотров: 28
Psychopath
Comet Kid
This is written strait off the ear, so the tab probably won't be 100% and I've also done it for my 
accoustic guitar, so some parts are simplyfied. I've only written down the tabs for one of the guitars,
so if you find that I've mixed the different guitar voices please tell.
All tabs, except the solo, are only showing how that specific bit is played and should not be played in
addition to the rest. I recomend that you listen properly to this beautiful song before you play it.
Good luck!


Capo 3

    G   D   G       G   Hm  C    G   D   G       G   Hm  G
e:----------------------------------------------------------:
h:----------0-------0---3---5------------0-------0---3---0--:
g:--0---2---0-------0---0---0----0---2---0-------0---0---0--:  Repeat
D:--0---0------------------------0---0----------------------:
A:----------------------2---3------------------------2------:
E:--3-------3-------3------------3-------3-------3-------3--:

Intro: | G-D-G G-Hm-C G-D-G G-Hm-G |x2

   G        D          G
Oh girl you move to the rhythm,
            G           Hm        C
oh but your head is all out of control,
G           D              G
  there's a lot of fainting people inside
                G        Hm     G
thats screaming out your bloody name.

G     D        G
  Inside of my darkest mind,
G            Hm            C 
   something trying to get out,
        G              D    G
it says pick up your knife, go to her house and leave 
G       Hm            G
 nothing to the ground

            G  D  G
Cause I'm a psychopath,
           G   Hm   C
and I'm a maiaiainiac.
          G  D  G
And I'm a psychopath,
          G    Hm   G
and I'm a maiaiainiac.


    G   D   G       G   Hm  C    G   D   G         G   Hm  G
e:-----------------------2-------------------------------------:
h:----------0p3h0----0--3h-p5------------0p3h0---0---3---0p1h0-:
g:--0---2---0-------0------------0---2---0-------0---0---0-----:
D:--0---0------------------------0---0-------------------------:
A:----------------------2---3------------------------2---------:
E:--3-------3-------3------------3-------3-------3-------3-----:


G               D     G
  When you were going home from the movies on a 
G Hm       C
  saturday night.
        G             D            G
Ah you didn't see me laying in the bushes, 
G              Hm            G
following your every step home.


    G   D   G       G   Hm  C    G   D   G         G   Hm  G
e:-------------------------------------------------------------:
h:----------0p3h0---0---3---5------------0p3h0---0---3---0-----:
g:--0---2---0-------0---0---0----0---2---0-------0---0---0-----:
D:--0---0------------------------0---0-------------------------:
A:----------------------2---3------------------------2---------:
E:--3-------3-------3------------3-------3-------3-------3-----:


      G              D            G
Cause you were going home to your house,
          G           Hm           C
I saw you got in to bed feeling safe.
     G                  D                G
Oh I know you heard me sneak into your window,
         G      Hm        G
I put a pillow over your face.


    G   D   G       G    Hm      C    G   D   G   G   Hm  G
e:---------------------------3---------------------------------:
h:----------0p3h0---0---3h0p3---5------------0---0---3---0-----:
g:--0---2---0-------0-----------0----0---2---0---0---0---0-----:
D:--0---0----------------------------0---0---------------------:
A:------------------------------3--------------------2---------:
E:--3-------3-------3----------------3-------3---3-------3-----:


           G   D  G
Cause I'm a psychopath,
          G   Hm   C
and I'm a maiaiainiac.
         G   D  G
And I'm a psychopath,
         G   Hm   G
and I'm a maiainiac.


    G   D   G       G   Hm  C    G   D   G       G   Hm  G
e:----------------------------------------------------------:
h:----------0-------0---3---5------------0-------0---3---0--:
g:--0---2---0-------0---0---0----0---2---0-------0---0---0--:  Repeat
D:--0---0------------------------0---0----------------------:
A:----------------------2---3------------------------2------:
E:--3-------3-------3------------3-------3-------3-------3--:


G         D      G
 I have a little box in my cellar, 
  G         Hm   C
just about your size.
G           D           G
 And if you wanna come voluntary you'll 
G             Hm        G
 spare yourself form my violent side.

G D G       G Hm C       G   D   G        G  Hm G
ohohoho say ohohohoh say ohohohheheyh say no no no

G              D           G*
  No one would know if I'm a,
G              Hm          C* 
  no one would know if I'm a,
G              D           G* 
  no one would know if I'm a,
G                        Em             
Добавлено: 08.06.2016
Вам также может быть интересно:
Другие материалы по этой песне:
  • Аккорды и текст

Страница создана 08.06.2016
http://primanota.ru/comet-kid/psychopath-chords.htm
Привет, Гость.
Предлагаем пройти революционный курс по гитаре.
Подарок от PrimaNota.Ru, забирай!