PrimaNota.ru - самый крупный в мире бесплатный архив песенных текстов, аккордов, табулатур и нот


Comet Gain - Love Without Lies - бас-таба, видео

Регистрация Запомнить меня
Войти через:  Facebook Google Twitter Vk Yandex Mail.ru

Comet Gain - Love Without Lies - бас-таба, видео

Печатать
Просмотров: 55
G|--------------------------------|
D|--------------------------------|
A|--------------------------------| Intro
E|5-5-5-5-5-5-5-5-5-5-5-5-5-5-5-5-|

G|----------------------------------------------------------------|
D|----------------------------------------------------------------|
A|----------------------------------------------------------------| Verse
E|5-5-5-5-5-5-5-5/8-8-8-887-7-7-775-5-5-5-5-5-5-5/8-8-8-887-7-7-77|

G|----------------------------------------------------------------|
D|----------------------------------------------------------------|
A|----------------------------------------------------------------|
E|5-5-5-5-5-5-5-5/8-8-8-887-7-7-775-5-5-5-5-5-5-5/8-8-8-8-7-7-7-7-|

G|----------------|
D|----------------|
A|----------------|
E|5-5-5-5-5-5-5-5/|


G|------------------------------------------------------------------------------|
D|------------------------------------------------------------------------------|
A|------------------------------------------------------------------------------| Pre-Chorus
E|9-9-9-7-7-7-9-9-9-7-7-7-9-5-5-5-5-5-5-9-9-9-7-7-7-9-9-9-7-7-7-9-5-5-5-5-5-5-5/|

G|----------------------------------------|
D|----------------------------------------|
A|----------------------------------------| Chorus
E|12-12-12-10-9-9-9-9-12-12-12-10-9-9-9-9-|

G|-----------------------------------------------------------|
D|-----------------------------------------------------------|
A|-----------------------------------------------------------|
E|12-12-10-9-7-7-7-7-12-12-10-9-7-7-7-10-9-7-5-5-5-5-5-5-5-5-|


G|----------------------------------------------------------------------------------------|
D|----------------------------------------------------------------------------------------|
A|----------------------------------------------------------------------------------------| Bridge
E|5-5/12-12-9-9-9-9\5-5/12-12-9-9-9-9\5-5/12-12-9-9-9-9\5-5/12-12-9-9-9-9\5-5-5-5-5-5-5-5-|

/ = Slide Up
\ = Slide Down
Добавлено: 17.06.2016
Другие материалы по этой песне:
  • Аккорды и текст

Страница создана 17.06.2016
http://primanota.ru/comet-gain/love-without-lies-chords.htm
Привет, Гость.
Предлагаем пройти революционный курс по гитаре.
Подарок от PrimaNota.Ru, забирай!