PrimaNota.ru - самый крупный в мире бесплатный архив песенных текстов, аккордов, табулатур и нот


Comeback Kid - Bright Lights Keep Shining - текст песни, таба, видео

Регистрация Запомнить меня
Войти через:  Facebook Google Twitter Vk Yandex Mail.ru

Comeback Kid - Bright Lights Keep Shining - текст песни, таба, видео

Печатать
Просмотров: 177
Song: Bright Lights Keep Shining
Artist: Comeback Kid
Album: Wake The Dead
Year: 2005
Tabbed by: jasonkan (jason_902@hotmail.com)

Intro:
E|--------------------------------------------------------------------------|
B|--------------------------------------------------------------------------|
G|--------------------------------------------------------------------------|
D|-4-0---4-2---7-4-------44--xxx-444-xxx-444-xxx-444-xxx---4-2-4------------|
A|-4-0---4-2---7-4-------44--xxx-444-xxx-444-xxx-444-xxx---4-2-4------------|
D|-4-0---4-2---7-4-------44--xxx-444-xxx-444-xxx-444-xxx---4-2-4------------|

Verse: from the start of the day! [man Canadian vocals...]
E|------------------------|
B|------------------------|
G|---------555------------|
D|-444-7-2-333-7-4-2-4----|
A|-444-7-2-333-7-4-2-4----|
D|-444-7-2-----7-4-2-4----| x3

Forth time just:
E|-----------------|
B|-----------------|
G|---------555-----|
D|-444-7-2-555-7---|
A|-444-7-2-333-7---|
D|-444-7-2-----7—--|

Living out lives is our greates fear...
E|-------------------------------------------------------------------------|
B|-------------------------------------------------------------------------|
G|-------------------4-4-4-4-4-4-4-4-7-7-7-7-9-9-9-9-----------2---2-------|
D|-2/4-4-4-4-4-4-4-4-4-4-4-4-4-4-4-4-x-x-x-x-x-x-x-x-2-2-2-2---2-2-2-------|
A|-2/4-4-4-4-4-4-4-4-2-2-2-2-2-2-2-2-5-5-5-5-7-7-7-7-2-2-2-2---0-2-0-------|
D|-2/4-4-4-4-4-4-4-4---------------------------------2-2-2-2-----2---------|
Not the exact rhythm but u figure it out easily

E|--------------------------------------------------------9-12-14-14/12/14-|
B|---------------------------------------------------9-10------------------|
G|-------------------4-4-4-4-4-4-4-4-[keep playing-------------------------|
D|-2/4-4-4-4-4-4-4-4-4-4-4-4-4-4-4-4—-while guitar ------------------------|
A|-2/4-4-4-4-4-4-4-4-2-2-2-2-2-2-2-2—--2 plays]----------------------------|
D|-2/4-4-4-4-4-4-4-4-------------------------------------------------------|

                                                           ...we'll carry on!
E|-------------------------------------------------------------------------|
B|-------------------------------------------------------------------------|
G|------------7-7-7-7-7-7-7-7-2-2-2-4-4-4----------------------------------|
D|-4-0--4-2---7-7-7-7-7-7-7-7-2-2-2-4-4-4-4-4-4-4----4-0--4-2--------------|
A|-4-0--4-2---5-5-5-5-5-5-5-5-0-0-0-2-2-2-4-4-4-4----4-0--4-2--------------|
D|-4-0--4-2-------------------------------4-4-4-4----4-0--4-2--------------|

Chorus? Guitar 1:
E|--------------------------------------------------------------------------|
B|-11-11-11-11-11-11-11-11/10-10-10-10-10-10-10-10--------------------------|
G|-x--x--x--x--x--x--x--x--x--x--x--x--x--x--x--x---------------------------|
D|-9--9--9--9--9--9--9--9--8--8--8--8--8--8--8--8---------------------------|
A|--------------------------------------------------------------------------|
D|--------------------------------------------------------------------------|
X2
Its bloody hard to hear what the hell they're playin...crazy Canadians...

Chorus? Guitar 2:
E|--------------------------------------------------------------------------|
B|--------------------------------------------------------------------------|
G|--------------------------------------------------------------------------|
D|-44444444-77777777-66666666-----------------------------------------------|
A|-44444444-77777777-66666666-----------------------------------------------|
D|-44444444-77777777-66666666-----------------------------------------------|
Yeah sumthin like that.

Then:
E|----------------------------------------------------------------------------||
B|----------------------------------------------------------------------------||
G|--------------------------------------5-5-5-5-------------------------------||
D|-7-7-7-7-9-9-9-5-5--4-4-4-7-7-7-2-2-2-5-5-5-5-7-----------------------------||
A|-7-7-7-7-9-9-9-5-5--4-4-4-7-7-7-2-2-2-3-3-3-3-7-----------------------------||
D|-7-7-7-7-9-9-9-5-5--4-4-4-7-7-7-2-2-2---------7-----------------------------||

E|-------------------------------------------------------|
B|-------------------------------------------------------|
G|-------------------5-5-5-5-----------------------------|
D|-4-4-4-7-7-7-2-2-2-5-5-5-5-7-4-4-4-7-7-7-2-2-2-5-5-5---|
A|-4-4-4-7-7-7-2-2-2-3-3-3-3-7-4-4-4-7-7-7-2-2-2-5-5-5---|
D|-4-4-4-7-7-7-2-2-2---------7-4-4-4-7-7-7-2-2-2-5-5-5---| x2

Same Pattern:
E|-------------------------------------------------------|
B|-------------------------------------------------------|
G|-------------------5-5-5-5-----------------------------|
D|-4-4-4-7-7-7-2-2-2-5-5-5-5-7-4-4-4-7-7-7-2-2-2-5-5-5---|
A|-4-4-4-7-7-7-2-2-2-3-3-3-3-7-4-4-4-7-7-7-2-2-2-5-5-5---|
D|-4-4-4-7-7-7-2-2-2---------7-4-4-4-7-7-7-2-2-2-5-5-5---| x2
   . . . . . . . . . . . . . . . . . . . . . . . . . .
except on the second round, the last few chords are played without palm mute

from the start of day!
E|----------|
B|----------|
G|----------|
D|-4-2-4----|
A|-4-2-4----|
D|-4-2-4----| x3

E|-----------------|
B|-----------------|
G|---------555-----|
D|-444-7-2-555-7---|
A|-444-7-2-333-7---|
D|-444-7-2-----7—--|

Outro: we'll have our way!
E|-----------|
B|-----------|
G|-----------|
D|-4-4-2-4---|
A|-4-4-2-4---|
D|-4-4-2-4---| x3


E|-------------------------|
B|-------------------------|
G|---------555-------------|
D|-444-7-2-555-7--4-4-2-4--|
A|-444-7-2-333-7--4-4-2-4--|
D|-444-7-2-----7—-4-4-2-4--|

Good song...haha...funni Canadians...
Email/add me on Jason_902@hotmail.com for suggestions and improvements.
And Im onli jokin canadia, u know I luv u.
Chek out:
Converge - Hope Street
Every Time I Die - The New Black
Добавлено: 04.04.2012
Другие материалы по этой песне:
  • Аккорды и текст

Страница создана 04.04.2012
http://primanota.ru/comeback-kid/bright-lights-keep-shining-chords.htm
Привет, Гость.
Предлагаем пройти революционный курс по гитаре.
Подарок от PrimaNota.Ru, забирай!