PrimaNota.ru - самый крупный в мире бесплатный архив песенных текстов, аккордов, табулатур и нот


Combichrist - Get Your Body Beat - текст песни, бас-таба, видео

Регистрация Запомнить меня
Войти через:  Facebook Google Twitter Vk Yandex Mail.ru

Combichrist - Get Your Body Beat - текст песни, бас-таба, видео

Печатать
Просмотров: 325
Уроки эстрадного вокала в Санкт-Петербурге
Авторы музыки: Andy LaPlegua
Авторы текста: Andy LaPlegua
G|-------------------------------1-------------------------------1|
D|--33--33--33--33--33--34--33--3---33--33--33--33--33--34--33--3-|
A|----------------------------------------------------------------|
E|11--11--11--11--11--11--11--11--11--11--11--11--11--11--11--11--|

G|-------------------------------1-------------------------------1|
D|--33--33--33--33--33--34--33--3---33--33--33--33--33--34--33--3-|
A|----------------------------------------------------------------|
E|11--11--11--11--11--11--11--11--11--11--11--11--11--11--11--11--|

G|-------------------------------1-------------------------------1|
D|--33--33--33--33--33--34--33--3---33--33--33--33--33--34--33--3-|
A|----------------------------------------------------------------|
E|11--11--11--11--11--11--11--11--11--11--11--11--11--11--11--11--|

G|-------------------------------1-------------------------------1|
D|--33--33--33--33--33--34--33--3---33--33--33--33--33--34--33--3-|
A|----------------------------------------------------------------|
E|11--11--11--11--11--11--11--11--11--11--11--11--11--11--11--11--|

G|-------------------------------1-------------------------------1|
D|--33--33--33--33--33--34--33--3---33--33--33--33--33--34--33--3-|
A|----------------------------------------------------------------|
E|11--11--11--11--11--11--11--11--11--11--11--11--11--11--11--11--|

G|-------------------------------1-------------------------------1|
D|--33--33--33--33--33--34--33--3---33--33--33--33--33--34--33--3-|
A|----------------------------------------------------------------|
E|11--11--11--11--11--11--11--11--11--11--11--11--11--11--11--11--|

www.combichrist.com
Добавлено: 09.06.2012
Другие материалы по этой песне:
  • Аккорды и текст

Страница создана 09.06.2012
http://primanota.ru/combichrist/get-your-body-beat-chords.htm
Привет, Гость.
Предлагаем пройти революционный курс по гитаре.
Подарок от PrimaNota.Ru, забирай!