PrimaNota.ru - самый крупный в мире бесплатный архив песенных текстов, аккордов, табулатур и нот


Comadre - Cold Rain - бас-таба, видео

Регистрация Запомнить меня
Войти через:  Facebook Google Twitter Vk Yandex Mail.ru

Comadre - Cold Rain - бас-таба, видео

Печатать
Просмотров: 79
Play with a pick. Angle it for a tough attack on the intro and make sure to hit 
every note of the main riff with considerable and equal force.

Intro

Rest 6 bars then:
G|----------------|----------------|----------------|----------------|
D|----------------|----------------|----------------|----------------|
A|----------------|----------------|----------------|----------------|
E|5---5--55-------|5---5--55-------|5---5--55-------|5---5--55-------|

Verse:

G|----------------|----------------|----------------|----------------|
D|7---7--57-5-----|----------------|--7-------------|----------------|
A|------------7-8-|--7---3---5-7-5-|------5---3-5-7-|--5---3---5-3-0-|
E|----------------|----------------|----------------|----------------|

G|----------------|----------------|----------------|----------------|
D|7---7--57-5-----|----------------|--7-------------|----------------|
A|------------7-8-|--7---3---5-7-5-|------5---3-5-7-|--5---3---5-3-5-|
E|----------------|----------------|----------------|----------------|

G|----------5-----|----------------|----------------|----------------|
D|7---7--57---7-5-|----------------|--7-------------|----------------|
A|----------------|--7---5-----7-5-|------5---3-5-7-|--5---3---2-----|
E|----------------|----------8-----|----------------|----------------|


G|----------------|----------------|----------------|----------------|
D|----------------|----------------|----------------|----------------|
A|----------------|----------------|----------------|----------------|
E|5---5--55-------|5---5--55-------|5---5--55-------|5---5--55-------|

Chorus:

G|----------------|----------------|----------------|----------------|
D|7---7--57-5-----|----------------|--7-------------|----------------|
A|------------7-8-|--7---3---5-7-5-|------5---3-5-7-|--5---3---5-3-0-|
E|----------------|----------------|----------------|----------------|

G|----------------|----------------|----------------|----------------|
D|7---7--57-5-----|----------------|--7-------------|----------------|
A|------------7-8-|--7---3---5-7-5-|------5---3-5-7-|--5---3---5-3-5-|
E|----------------|----------------|----------------|----------------|

G|----------5-----|----------------|----------------|----------------|
D|7---7--57---7-5-|----------------|--7-------------|----------------|
A|----------------|--7---5-----7-5-|------5---3-5-7-|--5---3---5-3-0-|
E|----------------|----------8-----|----------------|----------------|

G|----------5-----|----------------|----------------|----------------|
D|7---7--57---7-5-|----------------|--7-------------|----------------|
A|----------------|--7---5-----7-5-|------5---3-5-7-|--5---3---2-----|
E|----------------|----------8-----|----------------|----------------|

G|----------------|----------------|----------------|----------------|
D|----------------|----------------|----------------|----------------|
A|----------------|----------------|----------------|----------------|
E|5---5--55-------|5---5--55-------|5---5--55-------|5---5--55-------|

Rest 8 bars

G|----------------|----------------|----------------|----------------|
D|----------------|----------------|----------------|----------------|
A|----------------|----------------|----------------|----------------|
E|1-1-1-1-1-1-1-1-|3-3-3-3-3-3-3-3-|5-5-5-5-5-5-5-5-|5-5-5-5-5-5-5-5-|

G|----------------|----------------|----------------|----------------|
D|----------------|----------------|----------------|----------------|
A|----------------|----------------|----------------|----------------|
E|1-1-1-1-1-1-1-1-|3-3-3-3-3-3-3-3-|5---5--55-------|5---5--55-------| x2
Добавлено: 05.09.2013
Вам также может быть интересно:
Другие материалы по этой песне:
  • Аккорды и текст

Страница создана 05.09.2013
http://primanota.ru/comadre/cold-rain-chords.htm
Привет, Гость.
Предлагаем пройти революционный курс по гитаре.
Подарок от PrimaNota.Ru, забирай!