PrimaNota.ru - самый крупный в мире бесплатный архив песенных текстов, аккордов, табулатур и нот


Coma - Wola Istnienia - таба, видео

Регистрация Запомнить меня
Войти через:  Facebook Google Twitter Vk Yandex Mail.ru

Coma - Wola Istnienia - таба, видео

Печатать
Просмотров: 111
Tab do Woli Istnienia:
Strojenie: Drop C#, czyli drop D i wszystko o pół tonu w doł

(Wypaczona wola, chory cel...) przez całą zwrotkę
Kod:
d#|-------------------------------------------------------------|
a#|-------------------------------------------------------------|
f#|-------------------------------------------------------------|
c#|-------------------------------------------------------------|
g#|---3--5------------------------------------------------------|
c#|---------3--5------------------------------------------------|


1:00
Kod:
d#|-------------------------------------------------------------|
a#|------------15---13--16--15--------13/15----13--16--15-------|
f#|-------/12---------------------------------------------------|
c#|-------------------------------------------------------------|
g#|-12\---------------------------------------------------------|
c#|-12\---------------------------------------------------------|


1:13
(Wyczulony na piękno ze wzrokiem w noc...) przez całą zwrotkę
Kod:
d#|-------------------------------------------------------------|
a#|-------------------------------------------------------------|
f#|-------------------------------------------------------------|
c#|-------------------------------------------------------------|
g#|---3--5------------------------------------------------------|
c#|---------3--5------------------------------------------------|


1:34 do 2:18
(Rodzi się moc...), kostkowanie jedynie w miejscach gdzie są "*"
Kod:
d#|-------------------------------------------------------------|
a#|-------------------------*-----------------------------------|
f#|--*----------*-----------10----*---------*-------------------|
c#|--8-7--8-7---8-7--8-7----------8-7--8-7--8-7--8-7----*-------|
g#|-----------------------------------------------------8-------|
c#|-------------------------------------------------------------|


2:18
Kod:
d#|-------------------------------------------------------------|
a#|----------15---13--16--15--------13/15----13--16--15---------|
f#|-----/12-----------------------------------------------------|
c#|-------------------------------------------------------------|
g#|-------------------------------------------------------------|
c#|-------------------------------------------------------------|


2:29
(Poprzez cierpienie nie stajesz się...) przez całą zwrotkę
Kod:
d#|-------------------------------------------------------------|
a#|-------------------------------------------------------------|
f#|-------------------------------------------------------------|
c#|-------------------------------------------------------------|
g#|---3--5------------------------------------------------------|
c#|---------3--5------------------------------------------------|


2:50 do 3:35
(Rodzi się moc...), kostkowanie jedynie w miejscach gdzie są "*"
Kod:
d#|-------------------------------------------------------------|
a#|-------------------------*-----------------------------------|
f#|--*----------*-----------10----*---------*-------------------|
c#|--8-7--8-7---8-7--8-7----------8-7--8-7--8-7--8-7----*-------|
g#|-----------------------------------------------------8-------|
c#|-------------------------------------------------------------|


3:35
Solówka, wykorzystana jest tzw. kaczka (Wah wah)
Kod:
d#|-------------------------------------------------------------|
a#|-------------------------------------------------------------|
f#|--/12--12-12-12-12-12--10--13-13-13---12-12-12-12-12---------|
c#|-------------------------------------------------------------|
g#|--/10--10-10-10-10-10--8---11-11-11---10-10-10-10-10---------|
c#|-------------------------------------------------------------|


Kod:
d#|-------------------------------------------------------------|
a#|-------------------------------------------------------------|
f#|--/12--12-12-12-12-12--10--13-13-13---12-12-12-12-12---------|
c#|-------------------------------------------------------------|
g#|--/10--10-10-10-10-10--8---11-11-11---10-10-10-10-10---------|
c#|-------------------------------------------------------------|


Kod:
d#|-------------------------------------------------------------|
a#|-------------------------------------------------------------|
f#|-17-17-17-17-17-16-16-16-16-16-16-10-13-13-13--12-12-12-12-12|
c#|-------------------------------------------------------------|
g#|-15-15-15-15-15-14-14-14-14-14-14-8--11-11-11--10-10-10-10-10|
c#|-------------------------------------------------------------|


Kod:
d#|-------------------------------------------------------------|
a#|-------------------------------------------------------------|
f#|--/12--12-12-12-12-12--10--13-13-13---12-12-12-12-12---------|
c#|-------------------------------------------------------------|
g#|--/10--10-10-10-10-10--8---11-11-11---10-10-10-10-10---------|
c#|-------------------------------------------------------------|


3:56
(Jeżeli piękno zasługuje...)
Kod:
d#|-------------------------------------------------------------|
a#|-------------------------------------------------------------|
f#|-------------------------------------------------------------|
c#|-1-1-1-x-x-x-x---1-1--x-x--1--1-x-x-x-x--1-1-x-x-------------|
g#|-1-1-1-x-x-x-x---1-1--x-x--1--1-x-x-x-x--1-1-x-x-------------|
c#|-1-1-1-x-x-x-x---1-1--x-x--1--1-x-x-x-x--1-1-x-x-------------|


Kod:
d#|-------------------------------------------------------------|
a#|-------------------------------------------------------------|
f#|-------------------------------------------------------------|
c#|-5--5--5-5-5-5---5-5--5-5--3--3-3-3-3-3--3-3-3-3-------------|
g#|-5--5--5-5-5-5---5-5--5-5--3--3-3-3-3-3--3-3-3-3-------------|
c#|-5--5--5-5-5-5---5-5--5-5--3--3-3-3-3-3--3-3-3-3-------X4----|


(To osądzi mnie bezduszna wieczna noc...)
Kod:
d#|-------------------------------------------------------------|
a#|-------------------------------------------------------------|
f#|--x-x---5----------------------------------------------------|
c#|--x-x---5----------------------------------------------------|
g#|--x-x---5----------------------------------------------------|


4:46
(Jeżeli piękno zasługuje...)
Kod:
d#|-------------------------------------------------------------|
a#|-------------------------------------------------------------|
f#|-------------------------------------------------------------|
c#|-1-1-1-/13-------1-1--/13----1-1--/13--------1-1-/13---------|
g#|-1-1-1-/13-------1-1--/13----1-1--/13--------1-1-/13---------|
c#|-1-1-1-/13-------1-1--/13----1-1--/13--------1-1-/13---------|


Kod:
d#|-------------------------------------------------------------|
a#|-------------------------------------------------------------|
f#|-------------------------------------------------------------|
c#|-5--5--5-5-5-5---5-5--5-5--3--3-3-3-3-3--3-3-3-3-------------|
g#|-5--5--5-5-5-5---5-5--5-5--3--3-3-3-3-3--3-3-3-3-------------|
c#|-5--5--5-5-5-5---5-5--5-5--3--3-3-3-3-3--3-3-3-3-------X4----|


(To osądzi mnie bezduszna wieczna noc...)
Kod:
d#|-------------------------------------------------------------|
a#|-------------------------------------------------------------|
f#|--x-x---5----------------------------------------------------|
c#|--x-x---5----------------------------------------------------|
g#|--x-x---5----------------------------------------------------|


Outro
5:24
Kod:
d#|-------------------------------------------------------------|
a#|-------------------------*-----------------------------------|
f#|--*----------*-----------10----*---------*-------------------|
c#|--8-7--8-7---8-7--8-7----------8-7--8-7--8-7--8-7----*-------|
g#|-----------------------------------------------------8-------|
c#|----------------------------------------------------------X2-|


Kod:
d#|-------------------------------------------------------------|
a#|-----------------------*-------------------------------------|
f#|-*----------*---------10---*---------*-----------------------|
c#|-8-7--8-7---8-7--8-7-------8-7--8-7--8-7--8-7----*---*-------|
g#|-------------------------------------------------8---8\12~~~~|
c#|-------------------------------------------------------------|
Добавлено: 04.07.2012
Другие материалы по этой песне:
  • Аккорды и текст

Страница создана 04.07.2012
http://primanota.ru/coma/wola-istnienia-chords.htm
Привет, Гость.
Предлагаем пройти революционный курс по гитаре.
Подарок от PrimaNota.Ru, забирай!