PrimaNota.ru - самый крупный в мире бесплатный архив песенных текстов, аккордов, табулатур и нот


Coma - W Ogrodzie - таба, видео

Регистрация Запомнить меня
Войти через:  Facebook Google Twitter Vk Yandex Mail.ru

Coma - W Ogrodzie - таба, видео

Печатать
Просмотров: 124
This is my tab for song "w ogrodzie"(in the garden) of polish rockband  Coma. Please rate this tab.

Legend:

h-hammer on
p-pull off
v-vibrato
(X)-ghost note
/-slide
^-bend(below you have types of bendings used in this song)
b-bend
b/r-bend/release

Bass (intro, verses(with some variations), chorus):

Gb|---------------/12--------7—-6h7p6--6----|
Db|------5---5------------/9-------------7--|
Ab|--7-----7---7----------------------------|
Eb|-----------------------------------------|

Gb|--------------/12--------7—6h7p6--/9--|
Db|-----5---5------------/9--------------|
Ab|-7-----7---7--------------------------|
Eb|--------------------------------------|

Riff(intro) x2
                                                 b  b/r
Eb|-12-12-12-10h12p10------------------------9---9^--9^-----|
Bb|-------------------12-12-10--12---------------------/12--|
Gb|---------------------------------11-11-11----------------|
Db|---------------------------------------------------------|
            b/r
Eb|----12--14^--12-10-10v-10v—9h10p9—7h9-----|
Bb|--12--------------------------------------|
Gb|------------------------------------------|
Db|------------------------------------------|

Verses

Eb|------------------------------------------------------------------|
Bb|----7---7---8-7----7---7---7----7---7---8-7---5/7—7v-7v-7v--------|
Gb|------9---9----------9---9--------9---9---------------------------|
Db|--9--------------9------------9-----------------------------------|
Ab|------------------------------------------------------------------|
Eb|------------------------------------------------------------------|

Riff(after 1st verse) x2
                                                 don't pick,just hammer
Eb|-10h12-12-10h12p10---------------------------9h10p9h10p9h10p9h10p9h10p9----|
Bb|-------------------12-12-10--12----------------------------------------/12-|
Gb|---------------------------------11-11-11-11-------------------------------|
Db|---------------------------------------------------------------------------|
            b/r
Eb|----12---14^--12-10-10v-10v—9h10p9—7h9-----|
Bb|--12--12-----------------------------------|
Gb|-------------------------------------------|
Db|-------------------------------------------|

Solo

Eb|-12-12-12-10h12p10-12p10-12/14-12--10h12-12-12p10-12/14-12—-|
Bb|------------------------------------------------------------|
Gb|------------------------------------------------------------|

Eb|-12p10-12—12p10—12/14-12---12p10-12-(12)-12p10-12/14-12--|
Bb|---------------------------------------------------------|
Gb|---------------------------------------------------------|

Eb|15-17-19--19-17-15-17--17-15-17-15-14-15-14----14--------|
Bb|--------------------------------------------15----15-17--|
Gb|---------------------------------------------------------|

Eb|-10-12-12p10-12/14-12—-12-12p10-12/14-12v--10h12-12v----|
Bb|--------------------------------------------------------|
Gb|--------------------------------------------------------|

Eb|-15-17-17/19--19-17-15-17-17/19--19-17-15-17-17/19--19-17-15-17--|
Bb|-----------------------------------------------------------------|
Gb|-----------------------------------------------------------------|

Eb|-17-17-17-17-17-17-14-15-14----14----------12-12p10--12-12/14-12-|
Bb|----------------------------15----15-15/17-----------------------|
Gb|-----------------------------------------------------------------|
            b   b
Eb|--10h12—14^-14^-12---10h12-12p10-12/14-14-12p10-12---|v—
Bb|-----------------------------------------------------|
Gb|-----------------------------------------------------|

Eb|--12-12-12p10-12/14-14-12p10-12v—--12-10-12—-12--10-12-12/14/12v--|
Bb|------------------------------------------------------------------|
Gb|------------------------------------------------------------------|

Eb|---10-12-12/14/12v--10-12-12/14-14-12-------|
Bb|--------------------------------------------|
Gb|--------------------------------------------|

Riff/Solo
                                                 b  b/r
Eb|-12-12-12-10h12p10----------------------------9^--9^-----|
Bb|-------------------12-12-10--12---------------------/12--|
Gb|---------------------------------11-11-11-11-------------|
Db|---------------------------------------------------------|
           b/r
Eb|----12--14^--12-10-10v-10v—9h10p9—7h9---|
Bb|-12-------------------------------------|
Gb|----------------------------------------|
Db|----------------------------------------|

                                                 don't pick,just hammer
Eb|--12--12--10h12p10---------------------------9h10p9h10p9h10p9h10p9h10p9----|
Bb|-------------------12-12-10--12----------------------------------------/12-|
Gb|---------------------------------11-11-11-11-------------------------------|
Db|---------------------------------------------------------------------------|
            b/r
Eb|----12---14^--12-10-10v-10v—9h10p9—7h9--|
Bb|--12--12--------------------------------|
Gb|----------------------------------------|
Db|----------------------------------------|

Eb|-- 7—-7/10—-10—--10-—-9h10--—9h10p9—7h9---|
Bb|------------------------------------------|
Gb|------------------------------------------|
Db|------------------------------------------|
                   b/r
Eb|-9-9-------12---14^--12-10-10v-10v—9h10p9—7h9-|
Bb|----/12--12--12-------------------------------|
Gb|----------------------------------------------|
Db|----------------------------------------------|

                                                 don't pick, just hammer
Eb|---12--12-10h12p10---------------------------9h10p9h10p9h10p9h10p9h10p9----|
Bb|-------------------12-12-10--12----------------------------------------/12-|
Gb|---------------------------------11-11-11-11-------------------------------|
Db|---------------------------------------------------------------------------|
            b/r                            |let ring...
Eb|----12---14^--12-10-10v-10v—9h10p9—7h9-7—10vvvvvv--|
Bb|--12--12-------------------------------------------|
Gb|---------------------------------------------------|
Db|---------------------------------------------------|

If you have any corrections, please send me an e-mail: g-j246@wp.pl
Добавлено: 27.06.2012
Другие материалы по этой песне:
  • Аккорды и текст

Страница создана 27.06.2012
http://primanota.ru/coma/w-ogrodzie-chords.htm
Привет, Гость.
Предлагаем пройти революционный курс по гитаре.
Подарок от PrimaNota.Ru, забирай!